Ads

Dazil - City of Burning Sands (Xenogears) Bass Tab

Submitted: Mar 27, 2008 by goldsac (Last updated: Oct 07, 2009)

4
Average: 4 (1 vote)
Download | Listen
Game: Xenogears
Composer(s): Yasunori Mitsuda
Style: Transcription
Series: Xeno

AutoScroll: Slow | Medium | Fast
Title:     Dazil - City of Burning Sands
Game:      Xenogears
Composer:  Yasunori Mitsuda
Year:      1998
Tabber:    goldsac
Notes:

5 strings; Standard tuning (BEADG)

      - play closer to the bridge for this one to replicate the round tone on the track      

4/4 Time
    
_______________________________________________________________________________

Tribal   bpm=85


Intro

     H.           E   S S    Q.      Q     E  E   S  S    H.           E  E   
G||-----------------------|----------------------------|---------------------|
D||-----------------------|-------------------8--------|---------------------|
A||------------------10---|--8------10----11-----11-10-|---------------------|
E||--8------------L-----8-|----------------------------|--8------------L--6--|
B||-----------------------|----------------------------|---------------------|


                            Section A

  E.  E.  Q    E  E  E       E  E  Q    S S  S  S E   S  S    E  E  Q    S E.  Q     
------------------------||---------------------------------|------------------------|
------------------------||*-----------------------8--------|------------------------|
------------------------||------------------10-11----11-10-|------------------------|
--8---9---8----6--6-----||*--8--8---------8----------------|--8--8---------6---8----|
---------------------8--||---------------------------------|------------------------|


  E  E  Q    S S  S  S E   S  S    E  E  Q    S  S S  S  S  S  S S  
--------------------------------|----------------------------------|
-----------------------8--------|---------------10-8---------------|
-----------------10-11----11-10-|--------------------11-10-11-10-8-|
--8--8---------8----------------|--8--8----------------------------|
--------------------------------|----------------------------------|


  E  E  Q    S E.  Q       E  E  Q    S  S  S S  S  S S  S    E  E  Q    S S E  S E.   
------------------------|----------------------------------|--------------------------|
------------------------|---------------------8------------|--------------------------|
------------------------|---------------10-11---11-10-8-10-|--------------------------|
--8--8---------6---8----|--8--8----------------------------|--8--8---------8-6--8-9---|
------------------------|----------------------------------|--------------------------|


                                   Section B

  E  E  Q    S S  S  S  E  S  S     E  E  Q    S S  S  S E   S  S  
--------------------------------||--------------------------------|
--------------------10-10--8-10-||-----------------------8--------|
---------------8-10-------------||-----------------10-11----11-10-|
--8--8--------------------------||--8--8---------8----------------|
--------------------------------||--------------------------------|


  E  E  Q    S E.  Q       E  E  Q    S  S  S S  S  S S  S    E  E  Q    S S E  S E.   
------------------------|----------------------------------|--------------------------|
------------------------|---------------------8------------|--------------------------|
------------------------|---------------10-11---11-10-8-10-|--------------------------|
--8--8---------6---8----|--8--8----------------------------|--8--8---------8-6--8-9---|
------------------------|----------------------------------|--------------------------|


  E  E  Q    S S E  S E.     E  E  Q    S S S S S S  E     E  E  Q    S E  S Q     
--------------------------|-----------------------------|-------------------------|
--------------------------|-----------------------------|-------------------------|
--------------------------|---------------------7-8-10--|-------------------------|
--8--8---------8-6--6-6---|--8--8---------6-8-9---------|--8--8---------9--8-6----|
--------------------------|-----------------------------|-------------------------|


                                 Section C

  E   E   E   E  E   S  S  E   E     E  E  S E.  E.  E.  E   
----------------------------------|-------------------------|
-----------------8----------------|-------------------------|
-----10--11--10-----11-10-11--10--|-------------------------|
--8-------------------------------|--8--8----8---8---6---6--|
----------------------------------|-------------------------|


  E  E  E  E   E   S  E   S  S S    E  E  S E.  E.  E.  E   
---------------------------------|-------------------------|
---------------------------------|-------------------------|
--------7--8--10--11-10--11-10-8-|-------------------------|
--8--9---------------------------|--8--8----6---8---9---8--|
---------------------------------|-------------------------|


  E  E  E  E.   S  E   S  E.     E  E  S E.  E  E  E  E     E  E  S E.  E  Q.        
------------------------------|--------------------------|-------------------------||
------------------------------|--------------------------|------------------------*||
--------7--8---10-11--10-11---|--------------------7-----|-------------------------||
--8--9------------------------|--8--8----6---8--9-----9--|--8--8----6---8---------*||
------------------------------|--------------------------|-------------------------||


  E  E  Q    E   S  E   S  E      E  E  Q    E  E.  S E     E  E  Q    E  E.  S E   
------------------------------||-------------------------|-------------------------|
------------------------------||-------------------------|-------------------------|
----------------10-11--10-11--||-------------------------|-------------------------|
--8--8------------------------||--8--8----------9---6-6--|--8--8----------9---9-9--|
------------------------------||-------------------------|-------------------------|


                                                   Vocals 

  E  E  Q    E  E.  S E     E  E  Q    Q    Q        E  E  E  E.  S E.  S E   
-------------------------|-----------------------||--------------------------|
-------------------------|-----------------------||--------------------------|
-------------------------|-----------------------||--------------------------|
--8--8----------9---6-6--|--8--8-------9----9----||--8-----8------8-6---6-6--|
-------------------------|-----------------------||--------------------------|




Duration Legend
---------------
W - whole
H - half
Q - quarter
E - 8th
S - 16th
T - 32nd
X - 64th
. - note dotted
L - tied note
Login or Register to remove this ad.