Login or Register to remove this ad.

Pain of the Universe (Legend of Mana) Guitar Tab

Submitted: Oct 19, 2007 by archard (Last updated: Apr 16, 2008)

5
Average: 5 (8 votes)
Download | Listen
Game: Legend of Mana
Composer(s): Yoko Shimomura
Style: Transcription
Series: Mana

AutoScroll: Slow | Medium | Fast
Pain of the Universe
Legend of Mana
Composed by Yoko Shimomura
Tabbed by Richard Schaefer
10/19/07

      E.   E.   E  E.   E.   E      E.   E.   E   E.  E.   E   
E||-----------------------------|---------------------9---10--|
B||----------------9---10---12--|--10--------10--12-----------|
G||--11--------11---------------|-----------------------------|
D||-------11--------------------|-------11--------------------|
A||-----------------------------|-----------------------------|
E||-----------------------------|-----------------------------|


   E.   E.   E   E.   E.   E      E.   E.  E  E.  E.  E     W                 
--12---10---------------------|--12---10---8--7---5---3--|--5----------------|
------------13--12---10-------|--12---10---8--7---5---3--|--5----------------|
--------------------------12--|--------------------------|-------------------|
------------------------------|--------------------------|-------------------|
------------------------------|--------------------------|-------------------|
------------------------------|--------------------------|-------------------|


  W                   Q     E  T T  S Q    E  T T  S  
--7----------------|-------12--L---10------9--L---10-|
--7----------------|-------12--L---10------9--L---10-|
-------------------|-----------L---------------------|
-------------------|--------------------------L------|
-------------------|---------------------------------|
-------------------|---------------------------------|


  Q     E  T T  S H           Q     E  T T  S Q    E  T T  S  
-------12--L---10----------|-------12--L---10------9--L---10-|
-------12--L---10----------|-------12--L---10------9--L---10-|
---------------------------|---------------------------------|
-----------L---------------|-----------L--------------L------|
---------------------------|---------------------------------|
---------------------------|---------------------------------|


  Q     E  T T  S H           W                 
-------12--L---10----------|-------------------|
-------12--L---10----------|-------------------|
---------------------------|-------------------|
-----------L---------------|-------------------|
---------------------------|-------------------|
---------------------------|-------------------|


    E   E   E   E   E   S  E   S  E      E  T T  Q.     S. S.  E   E   
|------12--12--12--12--14-15--14-12--|--14--L-----------------14--15--|
|------------------------------------|----------15------L-------------|
|*-----------------------------------|--------------------------------|
|*-----------------------------------|--------------------------------|
|------------------------------------|--------------------------------|
|------------------------------------|--------------------------------|


   E  T T  Q.     S. S.  E   E      E.  T T  E  T T  Q    S  E.  T T  
--17--L---------------------14--|--15---L---14--L---12------10---L---|
----------17------L-----17------|------------------------------------|
--------------------------------|------------------------------------|
--------------------------------|------------------------------------|
--------------------------------|------------------------------------|
--------------------------------|------------------------------------|


  E   E   E   E   E   S  E   S  E      E  T T  Q.     S. S.  E   E   
-----12--12--12--12--14-15--14-12--|--14--L-----------------14--15--|
-----------------------------------|----------15------L-------------|
-----------------------------------|--------------------------------|
-----------------------------------|--------------------------------|
-----------------------------------|--------------------------------|
-----------------------------------|--------------------------------|


   E  T T  Q.     S. S.  E   E      S  S  S  S  S  S  S  S  S  S  S  S  E   E   
--17--L---------------------14--|--15-14-12-14-12----12------------------------|
----------17------L-----17------|-----------------15----15-13-15-13-12-----12--|
--------------------------------|--------------------------------------14------|
--------------------------------|----------------------------------------------|
--------------------------------|----------------------------------------------|
--------------------------------|----------------------------------------------|


   E  T T  E  T T  S S  E  T T  E  T T  S S     H        S. E  T  E.  T T  
--12--L-------L--------15--L---14--L---15---|--12--------L------------L---|
----------15------13------------------------|--------------------15-------|
--------------------------------------------|-----------------------------|
--------------------------------------------|-----------------------------|
--------------------------------------------|-----------------------------|
--------------------------------------------|-----------------------------|


   E  T T  E  T T  S S  E  T T  E  T T  S S     H        S. E  T  E.  T T  
--12--L-------L--------14--L---15--L---17---|--19--------L-------17---L---|
----------15------13------------------------|-----------------------------|
--------------------------------------------|-----------------------------|
--------------------------------------------|-----------------------------|
--------------------------------------------|-----------------------------|
--------------------------------------------|-----------------------------|


   |------3------|                        |------3------|                     
   H         E   E   E.  T T  E.  T T     H         E   E   E.  T T  E.  T T  
--15--------14------14---L------------|--17--------15--14--15---L---14---L---|
----------------17-------L---15---L---|-------------------------L--------L---|
----------------------------------L---|--------------------------------------|
--------------------------------------|--------------------------------------|
--------------------------------------|--------------------------------------|
--------------------------------------|--------------------------------------|


   H        S. E  T  E.  T T     H.           S E.   
--12--------L----------------|--14------------L-----|
------------L-------13---L---|----------------L-----|
-------------------------L---|----------------------|
-----------------------------|----------------------|
-----------------------------|----------------------|
-----------------------------|----------------------|


   Q    S S  S  S  Q    S S  S  S     E.  T T  E.  T T  E.  T T  E.  T T  
--12----L---14-15-17----L---15-17-|--15---L---14---L---------------------|
--------L---------------L---------|-------L--------L---17---L---15---L---|
----------------------------------|-------------------------L--------L---|
----------------------------------|--------------------------------------|
----------------------------------|--------------------------------------|
----------------------------------|--------------------------------------|


   Q    S S  Q    S S  E.  T T     H.           S E.   
------------19----L------------|--19------------L-----|
--17----L---------L---17---L---|----------------L-----|
--------L------------------L---|----------------------|
-------------------------------|----------------------|
-------------------------------|----------------------|
-------------------------------|----------------------|


   Q    S S  Q    S S  E.  T T     S  S  S  S  S  S  S  S  S  S  S  S  E   E   
------------19----L------------|--19-17-15-17-15-14-15-14-12-14-12------------|
--17----L---------L---17---L---|-----------------------------------15-13--15--|
--------L------------------L---|----------------------------------------------|
-------------------------------|----------------------------------------------|
-------------------------------|----------------------------------------------|
-------------------------------|----------------------------------------------|


   Q    S S  S  S  Q    S S  S  S     E.  T T  E.  T T  E.  T T  E.  T T  
--12----L---14-15-17----L---15-17-|--15---L---14---L---12---L---10---L---|
----------------------------------|--------------------------------------|
----------------------------------|--------------------------------------|
----------------------------------|--------------------------------------|
----------------------------------|--------------------------------------|
----------------------------------|--------------------------------------|


   Q    S S  Q    S S  E.  T T     H.           S E.   
--12----L---19----L------------|--19------------L-----|
----------------------17---L---|----------------------|
-------------------------------|----------------------|
-------------------------------|----------------------|
-------------------------------|----------------------|
-------------------------------|----------------------|


   Q    S S  Q    S S  E.  T T     S  S  S  S  S  S  S  S  S  S  S  S  E   E   
------------19----L------------|--19-17-15-17-15-14-15-14-12-14-12------------|
--17----L-------------17---L---|-----------------------------------15-13--15--|
-------------------------------|----------------------------------------------|
-------------------------------|----------------------------------------------|
-------------------------------|----------------------------------------------|
-------------------------------|----------------------------------------------|


   H.           S E.     W                 
--12------------L-----|-------------------|
----------------------|-------------------|
----------------------|-------------------|
----------------------|-------------------|
----------------------|-------------------|
----------------------|-------------------|


  E   S S  S S  S S  S S  S  S S  S  S S  
-----12---12---12---12---14-15---14-12---|
-----------------------------------------|
-----------------------------------------|
-----------------------------------------|
-----------------------------------------|
-----------------------------------------|


   S S  S  S S  S  S S  S S  S  S S  S  S S     E  T T  E  T T  E   H         
--12---14-15---14-12---12---14-15---14-12---|--14--L---15--L---17------------|
--------------------------------------------|----------------------15--------|
--------------------------------------------|--------------------------------|
--------------------------------------------|--------------------------------|
--------------------------------------------|--------------------------------|
--------------------------------------------|--------------------------------|


  Q.     T S.  E.  T T  E.  T T     E  T T  E  T T  E   E  T T  E  T T  E   
-----------------------14---L---|--15--L---14--L---15--17--L---15--L---17--|
--L------L----17---L------------|------------------------------------------|
--------------------------------|------------------------------------------|
--------------------------------|------------------------------------------|
--------------------------------|------------------------------------------|
--------------------------------|------------------------------------------|


   E  T T  E  T T  E   E  T T  E  T T  E      H.           S. T  S  S  
--19--L---17--L---19--20--L---19--L---17--|--19------------L----17-19-|
------------------------------------------|---------------------------|
------------------------------------------|---------------------------|
------------------------------------------|---------------------------|
------------------------------------------|---------------------------|
------------------------------------------|---------------------------|


                   |---3---|   |---3---|                                   
   Q    S S  S  S  E   E   E   E   E   E      Q    S S  Q    S S  E.  T T  
------------------------------------------|--12----L---19----L------------|
--17----L---19-20-19--17--20--19--17--15--|----------------------17---L---|
------------------------------------------|-------------------------------|
------------------------------------------|-------------------------------|
------------------------------------------|-------------------------------|
------------------------------------------|-------------------------------|


   H.           S E.     Q    S S Q    S S E.  T T  
--19------------L-----|--0----L---7----L---0---L---|
----------------------|-----------0----L-----------|
----------------------|----------------------------|
----------------------|----------------------------|
----------------------|--7----L------------7---L---|
----------------------|----------------------------|


   S  S  S  S S S S S S S S S E  E     S E  S E  S E  S E  E  E   
------------------------------------|--0-0--0-0--0-0--0-0--0--0--|
--12-10----10-8-7-8-7---7-----------|----------------------------|
--------12------------9---9-7-5--7--|----------------------------|
------------------------------------|--2-2--2-2--2-2--2-2--2--2--|
------------------------------------|----------------------------|
------------------------------------|----------------------------|


  S E  S E  S E  S E  Q       W                   
--0-------------------5----|--L-----------------||
---------------------------|--------------------||
----------------------2----|--L----------------*||
--2-2--2-2--2-2--2-2-------|-------------------*||
---------------------------|--------------------||
---------------------------|--------------------||




Duration Legend
---------------
W - whole
H - half
Q - quarter
E - 8th
S - 16th
T - 32nd
X - 64th
. - note dotted
|-n-|  - n-tuplets
Login or Register to remove this ad.

4 comments on Pain of the Universe

I saw secretly hoping

I saw secretly hoping someone would tab this one for the collection. fine job!

Wow very nice. This must

5

Wow very nice. This must have taken a lot of work, thank you. Part of why I like this is site is you make good tabs of songs people don't usually tab.

wow. Thank you so much for

5

wow.

Thank you so much for tabbing this out,
I grew up loving this theme in Legend of Mana,

And being able to try and learn it on the guitar.. wicked. Thanks!!

This is the shiz biz

5

This is the shiz biz