Ending Theme (Harvest Moon: Back to Nature) Guitar Tab

Submitted: Oct 03, 2007 by Kabukibear (Last updated: Sep 20, 2009)

5
Average: 5 (8 votes)
Download | Listen
Game: Harvest Moon: Back to Nature
Composer(s): Miyuki Homareda
Style: Arrangement, Fingerstyle
Series: Harvest Moon

AutoScroll: Slow | Medium | Fast
Ending Theme                                   
~Harvest Moon: Back To Nature~
Composed By: Miyuki Homareda
Arranged By: Justin Lincoln


     ^          ^            ^            ^                                  
     E  Q    E  H            E  Q     E   Q.     S S    Q    Q    Q    Q     
E||-----7----------------|------9----------------3-2-|--3----2----3----0----|
B||--8----------8--------|--10-----------10----------|--0----3----0----0----|
G||----------9--6--------|-----------11---8----------|--0----2----0---------|
D||--9----------7--------|--11------------9----------|-----------------2----|
A||--7----------0--------|---9-----------------------|----------------------|
E||----------------------|----------------7----------|--0----2----3----4----|


           ^           ^         ^            ^         ^           
  H        H           Q.     E  Q    Q       Q.     E  Q    E  E   
--------------------|----------------------|--------------------0--|
--3--------2--------|--3---------2---------|--0---------2----3-----|
--2--------2--------|--2---------2---------|--2---------2----------|
--2--------2--------|--0---------0---------|--0---------0----------|
--0--------0--------|---------0-------0----|---------0-------------|
--------------------|----------------------|-----------------------|


  ^          ^            ^         ^             ^          ^          
  Q    E  E  Q    Q       Q    Q    Q    E  E     Q    E  E  Q    Q     
--2----2--3--5---------|--7---------5-------0--|--2----2--3--5---------|
-------------3----3----|-------8----3----3-----|-------------3----3----|
--2--------------------|--7--------------------|--2--------------------|
--0----------4---------|--5---------4----------|--0--------------------|
-----------------------|-----------------------|-------------2---------|
-----------------------|-----------------------|-----------------------|


  ^         ^              ^          ^            ^         ^          
  Q    Q    E  E  E  E     Q    E  E  Q    Q       Q    Q    Q    Q     
--3----2----0--------0--|--2----2--3--5---------|--7---------5---------|
--0----3----2-----3-----|-------------3----3----|-------8----3----3----|
------------0-----------|--2--------------------|--7-------------------|
--2------------4--2-----|--0----------4---------|--5---------4---------|
------------0-----------|-----------------------|----------------------|
------------------------|-----------------------|----------------------|


  ^         ^     ^                                 ^          ^          
  Q    Q    E  E  E  E     Q    Q    Q    Q         Q    E  E  Q    Q     
--3----3----2--0--------|-----------------5----||---2----5-----2----5----|
--0---------------3--2--|--3----3----3---------||--------------0----0----|
--0---------2-----0-----|-------4--------------||*--2----2---------------|
------------------------|--4----5----4---------||*--0--------------------|
------------0-----4-----|--5----5----5---------||-----------0--0---------|
--0---------------------|----------------------||------------------------|


  ^          ^            ^          ^            ^          ^          
  Q    E  E  Q    Q       Q    E  E  Q    Q       Q    E  E  Q    Q     
--2----5-----2----5----|--2----5-----2----5----|--3----7--0--L----3----|
--2----2-----0----0----|-------------0----0----|--0----0-----2----2----|
-----------------------|--2----2---------------|-------------2---------|
--0--------------------|--0--------------------|--2--------------------|
----------0--0---------|----------0--0---------|-------------0---------|
-----------------------|-----------------------|-----------------------|


  ^          ^            ^          ^            ^          ^          
  Q    E  E  Q    Q       Q    E  E  Q    Q       Q    E  E  Q    Q     
--0----3-----0----3----|--0----3--0--L----3----|--0----2-----3----5----|
--0----0-----2----2----|--0----0-----2----2----|--0----0-----2---------|
--0----------2---------|--0----------2---------|--0----------2----6----|
--2--------------------|--2--------------------|--2--------------------|
----------0--0---------|----------0--0---------|----------0--0---------|
-----------------------|-----------------------|-----------------------|


  ^           ^              ^         ^            ^         ^           
  Q    E  E   Q     Q        Q.     E  Q    Q       Q.     E  Q    E  E   
--7----9-----10----12----|--10-------------------|--------------------0--|
-------------------------|-------------2---------|--0---------2----3-----|
--7----9-----11----12----|--11---------2---------|--2---------2----------|
-------------------------|---0---------0---------|--0---------0----------|
--7-------0---0----------|----------0-------0----|---------0-------------|
-------------------------|-----------------------|-----------------------|


  S S S S S S S S S S S S S S S S    S S S S S S S S S S S S S S S S  
--2-----0-2---3---5-------------5-|--7-------------7-5-------------0-|
------3-------------3---3-5-3-2---|----------8-7-5-----3---3-2-3-----|
----2-------2---------------------|----7---7---------------------2---|
--0-------------2-----4-----------|------5---------------4-----------|
----------------------------------|----------------------------------|
----------------------------------|----------------------------------|


  S S S S S S S S S S S S S S S S    S S S S S S S S S S S S S S S S  
--2-----0-2---3---5-----------2---|--3-----3-2-----2-0-----0---------|
------3---------------2-3-2-------|------0-------3-------2---2-------|
----2-------2-------2-------2---2-|----0-------2-------0-------2-0---|
--0-------------------------------|--2-------0---------------------2-|
----------------4-2---------------|------------------0---------------|
----------------------------------|----------------------------------|


  S S S S S S S S S S S S S S S S    S S S S S S S S S S S S S S S S  
--2-----0-2---3---5-------------5-|--7-------------7-5-------------0-|
------3-------------3---3-5-3-2---|----------8-7-5-----3---3-2-3-----|
----2-------2---------------------|----7---7---------------------2---|
--0-------------2-----4-----------|------5---------------4-----------|
----------------------------------|----------------------------------|
----------------------------------|----------------------------------|
 
                                     1st Ending----------,
  S S S S S S S S S S S S S S S S    Q    Q    Q    Q       
--3-----------3---2---0-----------|-----------------5-----||
------0---------3---------3---2---|--3----3----3----------||
----0---0---0-------2---2---0---0-|-------4--------------*||
----------2-----------------------|--4----5----4---------*||
------------------0-------4-------|--5----5----5----------||
--0-------------------------------|-----------------------||

2nd Ending----------------------------,
            ^           ^                  
  Q    Q    H           W                  
---------------------|--2----------------||
--3----3----3--------|--3----------------||
-------4-------------|--2----------------||
--4----5----4--------|--0----------------||
--5----5----5--------|-------------------||
---------------------|-------------------||




Duration Legend
---------------
W - whole
H - half
Q - quarter
E - 8th
S - 16th
T - 32nd
X - 64th
. - note dotted
|-n-|  - n-tuplets


Tablature Legend
----------------
L - tied note
^ - brush up
Login or Register to remove this ad.

1 comment on Ending Theme

This song really brings back

This song really brings back memories. Sooo sad sooo lovely thanks a billion god bless for tabbing it ;)