Ads

J-E-N-O-V-A (Final Fantasy VII) Bass Tab

Submitted: Nov 17, 2008 by auriplane

5
Average: 5 (4 votes)
Download | Listen
Game: Final Fantasy VII
Composer(s): Nobuo Uematsu
Style: Transcription
Series: Final Fantasy

AutoScroll: Slow | Medium | Fast
                  Final Fantasy 7 - J-E-N-O-V-A BASS TAB
                          Song by Nobuo Uematsu

                  Tabbed by auriplane ([email protected])

You don't need a five-string to play this song, but I like playing
it on five better (I am in love with my five-string bass), so I
included a five-string version at the bottom.

Both versions are in standard tuning.  All notes in this song are
eighth notes, so length markers aren't really necessary ;-)


                           FOUR STRING VERSION
    Intro

    - Rest for four measures -

G |----------------|----------------|
D |--------8-7-----|--7-8-7---------|  x4
A |5-8-5-8-----8-5-|8-------8-5-----|
E |----------------|------------6-5-|

    Part A

G |----------------|----------------|
D |--------8-7-----|--7-8-7---------|  x4
A |5-8-5-8-----8-5-|8-------8-5-----|
E |----------------|------------6-5-|

G |--------6-5-----|--5-6-5---------|  
D |3-6-3-6-----6-3-|6-------6-3-----|  x2
A |----------------|------------4-3-|
E |----------------|----------------|

G |----------------|----------------|
D |--------6-5-----|--5-6-5---------|  x2
A |3-6-3-6-----6-3-|6-------6-3-----|  
E |----------------|------------4-3-|

G |----------------|----------------|
D |--------3-2-----|--2-3-2---------|  x2
A |0-3-0-3-----3-0-|3-------3-0-----|  
E |----------------|------------1-0-|

G |--------5-4-----|--4-5-4---------|
D |2-5-2-5-----5-2-|5-------5-2-----|  x2  
A |----------------|------------3-2-|
E |----------------|----------------|

G |--------8-7-----|--7-8-7---------|
D |5-8-5-8-----8-5-|8-------8-5-----|  x2
A |----------------|------------6-5-|
E |----------------|----------------|

G |----------------|----------------|
D |--------8-7-----|--7-8-7---------|  x2
A |5-8-5-8-----8-5-|8-------8-5-----|
E |----------------|------------6-5-|

G |----------------|----------------|
D |3-3-3-3-3-3-3-3-|3-3-3-3-3-3-3-3-|  x4
A |----------------|----------------|
E |----------------|----------------|

G |----------------|----------------|
D |--------6-5-----|--5-6-5---------|  x2  
A |3-6-3-6-----6-3-|6-------6-3-----|
E |----------------|------------4-3-|

    Repeat back to A.



                           FIVE STRING VERSION
    Intro

    - Rest for four measures -

G |------------------------|------------------------|
D |------------8--7--------|---7--8--7--------------|
A |5--8--5--8--------8--5--|8-----------8--5--------|  x4
E |------------------------|------------------6--5--|
B |------------------------|------------------------|
                                                    
    Part A
                                                    
G |------------------------|------------------------|
D |------------8--7--------|---7--8--7--------------|
A |5--8--5--8--------8--5--|8-----------8--5--------|  x4
E |------------------------|------------------6--5--|
B |------------------------|------------------------|
                                                    
G |------------------------|------------------------|
D |------------11-10-------|---10-11-10-------------|  
A |8--11-8--11-------11-8--|11----------11-8--------|  x2
E |------------------------|------------------9--8--|
B |------------------------|------------------------|
                                                    
G |------------------------|------------------------|
D |------------------------|------------------------|
A |------------11-10-------|---10-11-10-------------|  x2  
E |8--11-8--11-------11-8--|11----------11-8--------|
B |------------------------|------------------9--8--|
                                                    
G |------------------------|------------------------|
D |------------------------|------------------------|
A |------------8--7--------|---7--8--7--------------|  x2
E |5--8--5--8--------8--5--|8-----------8--5--------|
B |------------------------|------------------6--5--|
                                                    
G |------------------------|------------------------|
D |------------10-9--------|---9--10-9--------------|
A |7--10-7--10-------10-7--|10----------10-7--------|  x2  
E |------------------------|------------------8--7--|
B |------------------------|------------------------|
                                                    
G |------------8--7--------|---7--8--7--------------|
D |5--8--5--8--------8--5--|8-----------8--5--------|
A |------------------------|------------------6--5--|  x2
E |------------------------|------------------------|
B |------------------------|------------------------|
                                                    
G |------------------------|------------------------|
D |------------8--7--------|---7--8--7--------------|
A |5--8--5--8--------8--5--|8-----------8--5--------|  x2
E |------------------------|------------------6--5--|
B |------------------------|------------------------|
                                                    
G |------------------------|------------------------|
E |------------------------|------------------------|
A |8--8--8--8--8--8--8--8--|8--8--8--8--8--8--8--8--|  x4
E |------------------------|------------------------|
B |------------------------|------------------------|
                                                    
G |------------------------|------------------------|
D |------------------------|------------------------|
A |------------11-10-------|---10-11-10-------------|  x2  
E |8--11-8--11-------11-8--|11----------11-8--------|
B |------------------------|------------------9--8--|

    Repeat back to A.


Login or Register to remove this ad.

3 comments on J-E-N-O-V-A

I can't believe...

5

Hardly anyone appreciates these bass tabs, i can't keep myself away from them...and i don't even have a bass!

^^

lol thats because bassists are shy xD but good tab ^^

Hehe thanks! Juja and I were

Hehe thanks! Juja and I were talking about redoing our recording of this song, and I remembered how much I love playing this on bass :-D