Ads

Goodnight Until Tomorrow (Final Fantasy VII) Guitar Tab

Submitted: May 19, 2008 by slovibond (Last updated: Oct 16, 2009)

5
Average: 5 (1 vote)
Download | Listen
Game: Final Fantasy VII
Composer(s): Nobuo Uematsu
Style: Arrangement, Fingerstyle
Series: Final Fantasy

AutoScroll: Slow | Medium | Fast
Capo on the second fret

						^^^
E-2---------------------------------------2---5-432----
B-----0-3-3---0---0---0---3-1-0---------3---5----------
G---0---------------0---2-------2-----4----------------
D-2---------------2-------2-------5-5------------------
A---------3-------0------------------------------------
E-------------------------3-------2--------------------

^ = triplet

Composer: Nobuo Uematsu.
Arranged by: Shaun Lovibond.
Featured in Final Fantasy VII OST (1997) - Disk 2, Track 3.

This song plays when the party is sleeping, most often at an inn or in a tent.
Login or Register to remove this ad.

3 comments on Goodnight Until Tomorrow

Ooops, This is supposed to

Ooops, This is supposed to be in Drop-d...

:3

ah! sweet! me loves!

I like it! Thx! Here it is

I like it! Thx! Here it is with standard tuning and without a capo, becouse I don't have one...

4/4
120 bpm
E|-4-----------0---0----------------|-----------------0----------------|
B|---------2---------------2--------|-2-------2---0-------3---2---0----|
G|-----2----------------------------|-----2----------------------------|
D|-4---------------0----------------|-4---------------4----------------|
A|----------------------------------|-2--------------------------------|
E|----------------------------------|-----------------3----------------|

E|-------------0---4---2---7---6p5--|-4~~~~~~~~~~~~~~~~~~~~~~~~~~~~~~~-||
B|---------2------------------------|----------------------------------||
G|-2---2----------------------------|----------------------------------||
D|----------------------------------|----------------------------------||
A|----------------------------------|----------------------------------||
E|-2--------------------------------|----------------------------------||

I found a Gutar Pro TAB similar to this, but I like your way in the middle and it's better to play this 1 octave higher at the end. But it feels lighter than yours a little so here it is:

4/4
124 bpm
E|-4-------0-------0----------------|-----------------2----------------|
B|---------2-------2-------2--------|-2--------------------------------|
G|-----2----------------------------|---------2---2---0-------2--------|
D|-4-----------2---0----------------|-----0---4------------------------|
A|----------------------------------|-2---------------2----------------|
E|----------------------------------|----------------------------------|
                   ^                                  ^
E|----------------------------------|----------------------------------||
B|-------------------------0--------|----------------------------------||
G|-2---------------1-----------3-2--|-1--------------------------------||
D|-------------2-------4------------|-2--------------------------------||
A|-----0---4------------------------|-4--------------------------------||
E|-2--------------------------------|-2--------------------------------||
                                      ^