Terra (Final Fantasy IX) Guitar Tab

Submitted: Oct 01, 2007 by archard (Last updated: Sep 16, 2009)

5
Average: 5 (7 votes)
Download | Listen
Game: Final Fantasy IX
Composer(s): Nobuo Uematsu
Style: 2 or more instruments, Transcription
Series: Final Fantasy

AutoScroll: Slow | Medium | Fast
Terra
Final Fantasy IX
Composed by Nobuo Uematsu

9/6/06

Intro
e--8-5---------5-----------1-----------0----------
B------5---3-5---5-3-1-3-5---3-----------1---3----
G------------------------------2---0-2-----0---3--
D------------------------------------------------3
A-------------------------------------------------
E-------------------------------------------------

e--------5
B--5-----5
G--5-----5
D--7------
A---------
E--------- x4

Guitar 2 - this is played repeatedly in the background
throughout most of the song (A minor)

e-------------
B--------1----
G------2---2--
D----2-------2
A--0----------
E-------------

Main Theme
e------------0-----2-3-2--0----0------------
B-----0--1-3-----------------3---1--0-------
G--2-----------------------------------2-0-2
D-------------------------------------------
A-------------------------------------------
E-------------------------------------------

e--------5
B--5-----5
G--5-----5
D--7------
A---------
E--------- x4

e------------0-----2-3-2--0-----0
B-----0--1-3------------------4--
G--2-----------------------------
D--------------------------------
A--------------------------------
E--------------------------------

e--------5
B--5-----5
G--5-----5
D--7------
A---------
E--------- x4

e------------0-----2-3-2--0----0------------
B-----0--1-3-----------------3---1--0-------
G--2-----------------------------------2-0-2
D-------------------------------------------
A-------------------------------------------
E-------------------------------------------

e--------5
B--5-----5
G--5-----5
D--7------
A---------
E--------- x4

e-------------------------------------------------
B--1-----3--1-0----------0-----3-1-----0----------
G---------------2-0----------------------2-----0-2
D----------------------2--------------------------
A-------------------------------------------------
E-------------------------------------------------

e--------5
B--5-----5
G--5-----5
D--7------
A---------
E--------- x4

e--5---0-5-3--2-0----0-----0-2-3---3-----5---0-5-3--2-0-------0-------------
B------------------3---1-3-------------------------------3-1----0-----------
G-----------------------------------------------------------------2-0--2---2
D---------------------------------------------------------------------------
A---------------------------------------------------------------------------
E--------------------------------------------------------------------------- x2

e--------5
B--5-----5
G--5-----5
D--7------
A---------
E--------- x4
Login or Register to remove this ad.

6 comments on Terra

Very nice tab, thanks a lot,

Very nice tab, thanks a lot, you got 5 out of 5 for this ^^ So i shall definatly use this

Very good

Very good

Great Job !!

Great Job !!

wooooooooooooow really great

5

wooooooooooooow really great tab!
no doubt!!
you `re my favourite tabber!

its been a while since i

5

its been a while since i played the game, is this the card game?

iLike this alot!

iLike this alot!