Frontier Village Dali (Final Fantasy IX) Guitar Tab

Submitted: Oct 01, 2007 by archard (Last updated: Sep 16, 2009)

4.727275
Average: 4.7 (22 votes)
Download | Listen
Game: Final Fantasy IX
Composer(s): Nobuo Uematsu
Style: Fingerstyle, Transcription
Series: Final Fantasy

AutoScroll: Slow | Medium | Fast
Frontier Village Dali
Final Fantasy IX
Composed by Nobuo Uematsu

9/22/06

Intro

e--0---------0-------1---------1-------2---------2-------1---------1----
B----3---3-----3-------3---3-----3-------3---2-----3-------1---1-----1--
G------0---------0-------2---------2-------2---------2-------2---------2
D-----------------------------------------------------------------------
A--3-----------------3-----------------3-----------------3--------------
E-----------------------------------------------------------------------

Melody

e--0-1-3----0-5--3------0-----------0---8--7--5---5-7-5-3---0-1-3---10--3
B------------------3--3---3-1---1-3--------------------------------------
G------------------------------------------------------------------------
D------------------------------------------------------------------------
A------------------------------------------------------------------------
E------------------------------------------------------------------------

e--3---0-1-3---12--5-----3--3-0-1-3-8---8-4-3-1---------0-----0-1-0-0----
B-----------------------------------------------1---3-----------------3-3
G------------------------------------------------------------------------
D------------------------------------------------------------------------
A------------------------------------------------------------------------
E------------------------------------------------------------------------

Repeat from beginning of melody

e--------0---7--3---------0--7-5-8-----5-7-8--5--1--0------
B--1---3--------------1-3------------------------------4---
G----------------------------------------------------------
D----------------------------------------------------------
A----------------------------------------------------------
E----------------------------------------------------------

e----2-7-5-3-----0-2-3-1----
B--3-----------------------3
G---------------------------
D---------------------------
A---------------------------
E---------------------------

e-----------------------------
B--4-----6-4-3-4-3-----0---1-1
G-----------------------------
D-----------------------------
A-----------------------------
E-----------------------------
Login or Register to remove this ad.

13 comments on Frontier Village Dali

omg, you are great! im

omg, you are great! im begining to play guitar and i love it so much because of your guitar tabs T---T ive always wanted to play FFIX music, and this song sooo calming/also one of my fav!!! please if you could, more please ^^ im your number one fan lol ^^ im practicing all these songs, until i get it all right! ^^ well ,have fun ^^ cus iam going to have fun >.>".

This sounds so much like a

This sounds so much like a piece from Chrono Cross.

Damn this song is really

Damn this song is really calming ma heart! Hehe...

Wow... i can allmost begin

Wow... i can allmost begin to cry by doing this song...

ya thats that good shit.

ya thats that good shit. that was one of my favorite parts of the game. i was glad to get out of that damn ice caveren and happy i beat that hard ass mage. haha man thats some good memories . i like that ff7 song for aeris yall should chk it out its nice to .

awesome! reminds me of wind

5

awesome! reminds me of wind scene in chrono trigger...

i adore this song - no - all

5

i adore this song - no - all final fantasy songs! they rock! thanks for all the great tabs!

it's all good but...

5

with the melody you need a second guitar to play the arpegio

here's a link

http://www.fretplay.com/tabs/m/misc_comp_games/final_fantasy_ix_frontier...

here you go

E |0---------0-----|1---------1-----|2---------2-----|1---------1-----|
B |--3---3-----3---|--3---3-----3---|--3---3-----3---|--1---1-----1---|
G |----0---------0-|----2---------2-|----2---------2-|----2---------2-|
D |----------------|----------------|----------------|----------------|
A |3---------------|3---------------|3---------------|3---------------|
E |----------------|----------------|----------------|----------------|

E |0---------0-----|0---------0-----|----------------|3-1-1-----------|
B |--3---3-----3---|--3---3-----3---|1-------1-------|1---1-----------|
G |----0---------0-|----0---------0-|--2-------0-----|2---------------|
D |----------------|----------------|----2-------2---|3---------------|
A |3---------------|2---------------|0---------------|----------------|
E |----------------|----------------|--------3-------|----------------|

E |0---------0-----|0---------0-----|0---------0-----|----------------|
B |--3---3-----3---|--3---3-----3---|--3---3-----3---|3-2-2-----------|
D |----0---------0-|----0---------0-|----0---------0-|0---0-----------|
G |----------------|----------------|----------------|2---------------|
A |3---------------|2---------------|1---------------|0---------------|
E |----------------|----------------|----------------|----------------|

E |3-----3---------|3-----3---------|0---------0-----|--------4-|
B |--3-------2---2-|--3-------3---3-|--3---3-----3---|------3---|
D |----2-------3---|----0-------0---|----0---------0-|----1-----|
G |3---------------|----------------|----------------|--3-------|
A |----------------|1---------------|3---------------|----------|
E |----------------|----------------|----------------|4---------|

*Repeat from the start.

play this in time with the melody

i love this tab. i past

i love this tab. i past almost 5 years playing ffix and now there i can learn this music thanks to you. ;)

arigatou!^^

5

Thnx alot, great song, awesome game ( my all time fav) and easy tabs.
Well done !

Arigatou!

5

:D

Sounds great!

5

I ignored the A chord and played it on the ukulele along with the song to get the hang of the rhythm. It matches up. ♥
It sounds so nice and peaceful. I really love this song. Thanks so much for posting. :)