Truth (Final Fantasy VIII) Guitar Tab

Submitted: Oct 01, 2007 by archard

4
Average: 4 (5 votes)
Download | Listen
Game: Final Fantasy VIII
Composer(s): Nobuo Uematsu
Style: Transcription
Series: Final Fantasy

AutoScroll: Slow | Medium | Fast
Truth
Final Fantasy VIII
Composed by Nobuo Uematsu

8/26/07

e------------------------------------------------
B-----1---1----------1---1----------1---1---1---1
G-----2---2----------2---2----------2---2---2---2
D-----2---3----------0---2----------2---3---0---2
A--0-----------------------------0---------------
E------------------------------------------------ x2

e-----------------------------2------------------
B--------------------0-3--2-0-----2-----0-2-0----
G-----------------------------------2-----------0
D--0---2-3---2-0-4-------------------------------
A------------------------------------------------
E------------------------------------------------

e---------------------------------------------
B---------------------------------------------
G---------------------------------0-----------
D--------2---0---0--------------0-----3-2-4--0
A------3-------3----2-------1-----------------
E--3------------------------------------------

Play part 2 once more then...

e--------0---------------------------3---1-0-1-------1---5---8---7-5-0-----3-1
B------1-----3-1-3--0--------------3-------------3---------------------1------
G--0---------------------------3-----------------------------------------2----
D-----------------------------------------------------------------------------
A-----------------------------------------------------------------------------
E-----------------------------------------------------------------------------

e--0----------------------1--8
B------3-1-------1-----2------
G----------2--------3---------
D------------2-3--------------
A-----------------------------
E-----------------------------
Login or Register to remove this ad.

2 comments on Truth

hey thanks for the great

5

hey thanks for the great tabs its perfect brill

Absolutely amazing!

5

This is exact. Thank you!