Ride On (Final Fantasy VIII) Guitar Tab

Submitted: Oct 01, 2007 by archard

5
Average: 5 (2 votes)
Download | Listen
Game: Final Fantasy VIII
Composer(s): Nobuo Uematsu
Style: Transcription
Series: Final Fantasy

AutoScroll: Slow | Medium | Fast
Ride On
Final Fantasy VIII
Composed by Nobuo Uematsu

8/11/06

e--------------------------------------------4---2-7-6---4-6-
B--------1-2---1-------------1-------0---2-4-----------------
G--1---3---------1-----0-1-3---1-3---------------------------
D------------------3-----------------------------------------
A------------------------------------------------------------
E------------------------------------------------------------

e--2h4p2-1h2p1--------------
B--------------4h6p4-2h4p2--
G--------------------------3
D---------------------------
A---------------------------
E---------------------------

e------0-2-------------------------------------1---------6
B--4-------2-----0---2-4---------------0-3-1-3---4--------
G------------------------3-------1---3---------------3----
D------------4---------------4----------------------------
A---------------------------------------------------------
E---------------------------------------------------------

e--------------------------------------------4---2-7-4-2-0----
B--------1-2---1-------------1-------0---2-4---------------4-2
G--1---3---------1-----0-1-3---1-3----------------------------
D------------------3------------------------------------------
A-------------------------------------------------------------
E-------------------------------------------------------------

e--------------------------------------------------
B--------------------------------------------------
G------1-2-1--------------------------1-2-1--------
D--4---------4-1-4-2--------------4---------4-1-4-2
A----------------------4---------------------------
E--------------------------------------------------

e----------------------------------------------------
B----------------------------------------------------
G------1-2-1----------------------------------------0
D--4---------4-1-4-2--------------------1-----2---4--
A----------------------4----------2---4--------------
E----------------------------------------------------
Login or Register to remove this ad.

2 comments on Ride On

what happened to the

what happened to the midi?
still cool though

Really cool music.

I like to listen to this on the battlefield. Makes me feel good, alive.