Junction (Final Fantasy VIII) Guitar Tab

Submitted: Oct 01, 2007 by archard (Last updated: Sep 16, 2009)

5
Average: 5 (2 votes)
Download | Listen
Game: Final Fantasy VIII
Composer(s): Nobuo Uematsu
Style: Transcription
Series: Final Fantasy

AutoScroll: Slow | Medium | Fast
Junction
Final Fantasy VIII
Nobuo Uematsu
(Created in Guitar Pro 2.2)

E||------------------|--3-----------2-----------|--------------2-----2--7--|
B||------------------|--------0--4-----4--0-----|--------0--4-----4--------|
G||------------------|-----0-----------------0--|-----0--------------------|
D||------------------|--2-----------------------|--2-----------------------|
A||------------------|--------------------------|--------------------------|
E||------------------|--------------------------|--------------------------|

--5-----------0-----------|---------------0-----0--5--|
-----------2-----2--------|-----------2------2--------|
--------2-----------2-----|--------2------------------|
--0--3-----------------3--|--0--3---------------------|
--------------------------|---------------------------|
--------------------------|---------------------------|

--3-----------2-----------|---------------2-----2--7--|
--------0--4-----4--0-----|--------0--4------4--------|
-----0-----------------0--|-----0---------------------|
--2-----------------------|--2------------------------|
--------------------------|---------------------------|
--------------------------|---------------------------|

--5-----------0-----------|---------------0-----0--5--|
-----------2-----2--------|-----------2------2--------|
--------2-----------2-----|--------2------------------|
--0--3-----------------3--|--0--3---------------------|
--------------------------|---------------------------|
--------------------------|---------------------------|

--3-----------------------|------------------------3--|
-----------1--4--1--------|-----------1---4--1--4-----|
-----0--2-----------2--0--|-----0--2------------------|
--1-----------------------|--1------------------------|
--------------------------|---------------------------|
--------------------------|---------------------------|

--------------------------|------------------------1--|
--6-----------2-----------|---------------2-----2-----|
--------0--3-----3--0-----|--------0--3------3--------|
-----3-----------------3--|-----3---------------------|
--4-----------------------|--4------------------------|
--------------------------|---------------------------|

--3-----------------------|------------------------3--|
-----------1--4--1--------|-----------1---4--1--4-----|
-----0--2-----------2--0--|-----0--2------------------|
--1-----------------------|--1------------------------|
--------------------------|---------------------------|
--------------------------|---------------------------|

--------------------------|------------------------1--|
--6-----------2-----------|---------------2-----2-----|
--------0--3-----3--0-----|--------0--3------3--------|
-----3-----------------3--|-----3---------------------|
--4-----------------------|--4------------------------|
--------------------------|---------------------------|

--3-----------2-----------|---------------2-----2--7--|
--------0--4-----4--0-----|--------0--4------4--------|
-----0-----------------0--|-----0---------------------|
--2-----------------------|--2------------------------|
--------------------------|---------------------------|
--------------------------|---------------------------|

--5-----------0-----------|---------------0-----0--5--|
-----------2-----2--------|-----------2------2--------|
--------2-----------2-----|--------2------------------|
--0--3-----------------3--|--0--3---------------------|
--------------------------|---------------------------|
--------------------------|---------------------------|

--3-----------2-----------|---------------2-----2--7--|
--------0--4-----4--0-----|--------0--4------4--------|
-----0-----------------0--|-----0---------------------|
--2-----------------------|--2------------------------|
--------------------------|---------------------------|
--------------------------|---------------------------|

--5-----------0-----------|---------------0-----0--5--|
-----------2-----2--------|-----------2------2--------|
--------2-----------2-----|--------2------------------|
--0--3-----------------3--|--0--3---------------------|
--------------------------|---------------------------|
--------------------------|---------------------------|

--3-----------------------|------------------------3--|
-----------1--4--1--------|-----------1---4--1--4-----|
-----0--2-----------2--0--|-----0--2------------------|
--1-----------------------|--1------------------------|
--------------------------|---------------------------|
--------------------------|---------------------------|

--------------------------|------------------------1--|
--6-----------2-----------|---------------2-----2-----|
--------0--3-----3--0-----|--------0--3------3--------|
-----3-----------------3--|-----3---------------------|
--4-----------------------|--4------------------------|
--------------------------|---------------------------|

--3-----------------------|------------------------3--|
-----------1--4--1--------|-----------1---4--1--4-----|
-----0--2-----------2--0--|-----0--2------------------|
--1-----------------------|--1------------------------|
--------------------------|---------------------------|
--------------------------|---------------------------|

--------------------------|------------------------1--|
--6-----------2-----------|---------------2-----2-----|
--------0--3-----3--0-----|--------0--3------3--------|
-----3-----------------3--|-----3---------------------|
--4-----------------------|--4------------------------|
--------------------------|---------------------------|

--3-----------2-----------|---------------2-----2--7--|
--------0--4-----4--0-----|--------0--4------4--------|
-----0-----------------0--|-----0---------------------|
--2-----------------------|--2------------------------|
--------------------------|---------------------------|
--------------------------|---------------------------|

--5-----------0-----------|---------------0-----0--5--||
-----------2-----2--------|-----------2------2--------||
--------2-----------2-----|--------2------------------||
--0--3-----------------3--|--0--3---------------------||
--------------------------|---------------------------||
--------------------------|---------------------------||
Login or Register to remove this ad.

1 comment on Junction

great tab

great tab