Julia (Final Fantasy VIII) Guitar Tab

Submitted: Oct 01, 2007 by archard (Last updated: Sep 16, 2009)

5
Average: 5 (4 votes)
Download | Listen
Game: Final Fantasy VIII
Composer(s): Nobuo Uematsu
Style: Transcription
Series: Final Fantasy

AutoScroll: Slow | Medium | Fast
Julia
Final Fantasy VIII
Composed by Nobuo Uematsu

8/14/06

e------------------------------------------------------------
B------------------------------------------------------------
G-----------1--4--1-------1------------------------1--4--4---
D-----2--4--------------4---2-----2-4--------2--4------------
A--2----------------------------4---------2------------------
E------------------------------------------------------------

e----0---------------------------
B--4---2---0-2-0-------------0---
G----------------------1---------
D------------------2-4---4------2
A--------------------------------
E--------------------------------

e------------------------------------------------------------------------------
B--4--2--2--0-------0-2--2-0---------------------------------------------------
G-----------------1----------2--2---1-----1-1----1-2--1-------------------1-4--
D---------------2-----------------4------------4--------4-4-2-----2-2---4-----4
A---------------------------------------------------------------4--------------
E------------------------------------------------------------------------------

e--------0----------------0-4-7-11--9-9---9--7-7---7-5-12---
B--0-2-4----0-0--2------------------------------------------
G-------------------1-1-------------------------------------
D-----------------------------------------------------------
A-----------------------------------------------------------
E-----------------------------------------------------------

e-----------------------------
B-----------------------------
G--2------1-----1-------------
D-----2-4-----2----4-2-1-4---2
A-----------------------------
E-----------------------------
Login or Register to remove this ad.

2 comments on Julia

the tab is great.u have done

the tab is great.u have done this amazing tune justice u rule man ^^

Great tab, but there's one

5

Great tab, but there's one part that doesn't sound right to me. It seems like the D2 D4 G1 D4 (about 25 notes in...sorry, don't feel writing the tab out) should be higher. I was trying to play along with the midi and this part kept messing me up. Maybe that's just me :/