Fisherman's Horizon (Final Fantasy VIII) Guitar Tab

Submitted: Oct 01, 2007 by archard

4.444445
Average: 4.4 (9 votes)
Download | Listen
Game: Final Fantasy VIII
Composer(s): Nobuo Uematsu
Style: Transcription
Series: Final Fantasy

AutoScroll: Slow | Medium | Fast
Fisherman's Horizon
Final Fantasy VIII
Composed by Nobuo Uematsu

7/23/06

Intro

e-------------------------------------1----------------------------
B------4-3-4-1-4-----1------------4-----3-4---3-4------------------
G--0-3-----------3-----2-3---------------------------------0-------
D---------------------------3---------------------------------0-1-1
A------------------------------------------------------------------
E------------------------------------------------------------------

Main Theme

e------1-3-----------1------------------1-3----3-6
B--4-4-------4---0-4---4-4----------4-4------4----
G--------------3----------------------------------
D-------------------------------------------------
A-------------------------------------------------
E-------------------------------------------------

e--6-8-6-----1-3---3-1------------------1-3-------
B--------4-------4-----4-1----------4-4------4-1-4
G-------------------------------------------------
D-------------------------------------------------
A-------------------------------------------------
E-------------------------------------------------

e------------------------------------------
B------4-3-----1----------------1----------
G--0-------3-----3----------0-----3-0---2-0
D------------------------------------------
A------------------------------------------
E------------------------------------------

e----------------------------3--------------------------------
B------------3-------------1---3---4----------6-4----------6-4
G----------0-----3-0-1-0-1------------------------------------
D--3-1-0-1----------------------------------------------------
A-------------------------------------------------------------
E-------------------------------------------------------------
Login or Register to remove this ad.

3 comments on Fisherman's Horizon

=)

=)

Awesome.

5

Awesome.

This song is amazing; so

This song is amazing; so peaceful and calm.
Well done tabbing.