Ads

Balamb Garden (Final Fantasy VIII) Guitar Tab

Submitted: Oct 01, 2007 by archard (Last updated: Sep 16, 2009)

4.25
Average: 4.3 (4 votes)
Download | Listen
Game: Final Fantasy VIII
Composer(s): Nobuo Uematsu
Style: 2 or more instruments, Transcription
Series: Final Fantasy

AutoScroll: Slow | Medium | Fast
Balamb Garden
Final Fantasy VIII
Nobuo Uematsu 

Part 1
E-------0-------------------0-----------------0-----------------------------
B-----------3---1---------------3---1--------------3---1--0--1--3--1--------
G---------2---2---2-----------2---2---2----------2---2----------------------
D---------------------------------------------------------------------------
A----0-------------------0------------------0-------------------------------
E--1-------------------1------------------1---------------------------------

Gtr. 1
|E-------0-------------------0-----------------0-----------------------------|
|B-----------3---1---------------3---1--------------3---1--0--1--3--1--------|
|G---------2---2---2-----------2---2---2----------2---2----------------------|
|D---------------------------------------------------------------------------|
|A----0-------------------0------------------0-------------------------------|
|E--1-------------------1------------------1---------------------------------|
|Gtr. 2                                                                      |
|E---------0-----------------------------------------------------------------|
|B------------------------------3-------------------1------------------------|
|G-----2-2---------------------2-------------------2-------------------------|
|D------3-------------------3-2-----------------2-3--------------------------|
|A---------------------------------------------------------------------------|
|E---------------------------------------------------------------------------|

E-------0-------------------0-----------------0-----------------------------
B-----------3---1---------------3---1--------------3---1--0--1--3--1--------
G---------2---2---2-----------2---2---2----------2---2----------------------
D---------------------------------------------------------------------------
A----0-------------------0------------------0-------------------------------
E--1-------------------1------------------1---------------------------------

Just before melody enters
E--5----------5------5----------5-----5----------5-----------------------
B----5--6--5-----5-----5--6--5-----5----5--6--5-----5--------------------
G------------------------------------------------------------------------
D------------------------------------------------------------------------
A------------------------------------------------------------------------
E------------------------------------------------------------------------

Melody
E-----------------0-----2--0--3--2--7--5------0~~~~----------------------
B-----------3--2-----3--------------------2-3----------------------------
G--2--1--2---------------------------------------------------------------
D------------------------------------------------------------------------
A------------------------------------------------------------------------
E------------------------------------------------------------------------

E-----------------0-----2--0--3--2--7--5------5-3p2-3--------------------
B-----------3--2-----3--------------------2-3----------------------------
G--2--1--2---------------------------------------------------------------
D------------------------------------------------------------------------
A------------------------------------------------------------------------
E------------------------------------------------------------------------

E--3--2--3-----------5--3--2--3--2--3------------------------------------
B-----------3~----3--------------------3~--------------------------------
G------------------------------------------------------------------------
D------------------------------------------------------------------------
A------------------------------------------------------------------------
E------------------------------------------------------------------------

E------------2----------0--2--0~-----------------------------------------
B----1---------------3---------------------------------------------------
G--3---3--0--------------------------------------------------------------
D------------------------------------------------------------------------
A------------------------------------------------------------------------
E------------------------------------------------------------------------

Part 2
Backing
E------------------------------------------------------------------------
B------------------------------------------------------------------------
G------------------------------------------------------------------------
D----------------6--------8--------6-------------------------------------
A----6--9------7--------9--------7--------6--9---------------------------
E--7---------7--------7--------7--------7--------------------------------

E------------------------------------------------------------------------
B------------------------------------------------------------------------
G------------------------------------------------------------------------
D------------------------6----------------8------------------------------
A----6----9--6-------7-------7----------9---------6-----9----------------
E--7---7-----------7---7---7---7------7---------7----7-------------------

Melody
E-----0--2--6--4--0--0----------0--4--1--2--7----------------------------
B--4----------------------2--4-------------------------------------------
G------------------------------------------------------------------------
D------------------------------------------------------------------------
A------------------------------------------------------------------------
E------------------------------------------------------------------------

E-----0--2--6--4--0--0---------0-----------------------------------------
B--4---------------------2--4--------2-----------------------------------
G---------------------------------3-----4-4~~----------------------------
D------------------------------------------------------------------------
A------------------------------------------------------------------------
E------------------------------------------------------------------------

Tab by: [email protected]
http://www.geocities.com/vganimegt
Login or Register to remove this ad.

5 comments on Balamb Garden

Great tab. Always loved

Great tab. Always loved this, thanks for tabbing it.

Great tab, love to play it.

Great tab, love to play it. But there is one note that I play different:

E------------2----------0--2--0
B----1---------------3---------
G--3---3--0--------------------

shouldn't this 0 on the G string be a 2 instead?

I might be wrong but this sounds a little better.
The rest is perfect :-)

No, i think you're right

No, i think you're right man. It sounds better with the 2.

Awesome work, well put

Awesome work, well put together. Yes Imus, your alteration is correct!

it was... the greatest

5

it was... the greatest remember i've ever had... im nostalgic... im remembering my childhood...
this tab is the best i've seen