Tifa's Theme (Final Fantasy VII) Guitar Tab

Submitted: Oct 01, 2007 by archard (Last updated: Nov 14, 2007)

4.666665
Average: 4.7 (18 votes)
Download | Listen
Game: Final Fantasy VII
Composer(s): Nobuo Uematsu
Style: Transcription
Series: Final Fantasy

AutoScroll: Slow | Medium | Fast
Tifa's Theme
Final Fantasy VII
Composed by Nobuo Uematsu

7/29/06

Intro

e--------------------------------------------
B--1----------------------1------------------
G------0---3---2--------------0---3---3-2-0-2
D--------------------------------------------
A--------------------------------------------
E--------------------------------------------

e--------------------------------------------------------
B--1----------------------1------------------------------
G------0---3---2--------------0---3---3-2-0-2-------0h2p0
D-----------------------------------------------3--------
A--------------------------------------------------------
E--------------------------------------------------------

Main Theme

e-------------------------------------
B-------------------------------------
G----2-0-2---------2-0-2--------------
D--------------------------------1----
A--3-------3-----3-------4-----4---4-3
E-------------------------------------

e--------------------------------1-0--
B------------------------1-----------3
G----2-0-2---------2-0-2-------2------
D-------------------------------------
A--3-------3-----3--------------------
E-------------------------------------

e-------------------------------------
B-------------------------------------
G----3-2-3---------3-2-3-0-----0---0-2
D--0-------0-----0---------------3----
A-------------------------------------
E-------------------------------------

e-----------------------------------
B-----------------------------------
G--2---2-0---0-3---2-0-0-----------0
D----------4-------------3-----0-3--
A-----------------------------------
E-----------------------------------
Login or Register to remove this ad.

25 comments on Tifa's Theme

perfect!!

perfect!!

Beautiful!

Beautiful!

ah that takes me back

ah that takes me back

Does it seem incomplete to

Does it seem incomplete to anyone else? Everyone FF tab I play kinda feels that way to me. Eh, I still liked this one a lot though :D

it seemed incomplete to me

it seemed incomplete to me

archard, thanks so much for

archard, thanks so much for the tabs! just one thing, most of the times, you don't end on some form of a cadence, so they sound incomplete...

Ahhh i love it song and tab

Ahhh i love it song and tab too

its good but missing some

its good but missing some parts i think.

Its not incomplete, it

Its not incomplete, it repeats, but in a different tone.

not bad

not bad

btw im new 2 the site but i

btw im new 2 the site but i must say ... finaly a damn good site 4 FF tabs Nice1 :)

it's missing chords thats

it's missing chords thats what its missing.

DUDE thats perfect thats not

DUDE thats perfect thats not missing anything. i listend to the song at http://www.rpgdreamer.com/ff7/ff7music.html its dead on unless u count all the backround stuff. i give u 5 thumbs and 5 stars or wutever.

in what tone does the song

in what tone does the song go on? i'd like to know that....
archard, could you please post the rest of it..

very very nice 5 stars

5

very very nice 5 stars

thanks alot for this tab it

4

thanks alot for this tab it is really good!

Awesome job!!!! This tab

5

Awesome job!!!! This tab ROCKS!!!

thank you very much :D

thank you very much :D

good

4

for noobs

you've done it again man!

5

you've done it again man!

Epic!

4

I really love this, though, my guitar is tuned normally and at the end of these tabs, you have

e------------------------------------------
B------------------------------------------
G--2---2-0---0-3---2-0-0-----------0
D----------4-------------3-----0-3------
A------------------------------------------
E------------------------------------------

I kept messing up your tabs with:

e------------------------------------------
B------------------------------------------
G--2---2-0---0-3---2-0-0-----------1
D----------3-------------3-----0-3------
A------------------------------------------
E------------------------------------------

But, what keeps me messing up your tabs is that my mess up sounded better, not to sound like an ass...
Eheh... ^^;

Archard's is tabbed rightly.

Archard's is tabbed rightly.

so b-e-a-u-t-ful... made me a

so b-e-a-u-t-ful... made me a bit sad... sniff... oh, memories...

......................

4

wow its perfect great job its missing the outro but thats okay

how about this?

e------------------------------------------------------------
B-1--------1--------------1--------1-------------------------
G---0-3-2----0-3-3-2-0-2----0-3-2----0-3-3-2-0-2---0h2p0-----
D------------------------------------------------3-----------
A------------------------------------------------------------
E------------------------------------------------------------

e---5-3-5-----5-3-5------------5-3-5-----5-3-5-8--5-13-12-10~
B-1-------1-1-------2-4-2-1~-1-------1-1---------------------
G------------------------------------------------------------
D------------------------------------------------------------
A------------------------------------------------------------
E------------------------------------------------------------

e---6-5-6-----6-5-6-3-3-1-3-5~-5-5-3-2-3-6-5-3-3-1~---1-3~---
B-3-------3-3---------------------------------------3--------
G------------------------------------------------------------
D------------------------------------------------------------
A------------------------------------------------------------
E------------------------------------------------------------

e----------------------------------------------------1-0-----
B------------------------------------------------1-------3~--
G---2-0-2-----2-0-2--------------2-0-2-----2-0-2---2---------
D------------------------------------------------------------
A-3-------3-3-------4-4-6-4-3~-3-------3-3-------------------
E------------------------------------------------------------

e------------------------------------------------------------
B------------------------------------------------------------
G---3-2-3-----3-2-3-0-0---0-2~-2-2-0---0-3-5-0-0-------------
D-0-------0-0-----------3------------4-----------4~-0-4-5~---
A------------------------------------------------------------
E------------------------------------------------------------