On the Other Side of the Mountain (Final Fantasy VII) Guitar Tab

Submitted: Oct 01, 2007 by archard (Last updated: Sep 15, 2009)

4.77778
Average: 4.8 (9 votes)
Download | Listen
Game: Final Fantasy VII
Composer(s): Nobuo Uematsu
Style: Fingerstyle, Transcription
Series: Final Fantasy

AutoScroll: Slow | Medium | Fast
On the Other Side of the Mountain
Final Fantasy VII
Composed by Nobuo Uematsu

8/23/06

e--4-----2-----0----------------
B-----0-----0-----0--4-0-4-5-4-0
G-------------------------------
D--2-----1----------------------
A--------------4-----2----------
E------------------------------- x2

e-------------------------------
B--2-----4--0--5--2--4-0-4-5-4-0
G-----2-------------------------
D-------------------------------
A--0-----2-----4-----2----------
E------------------------------- x2

Repeat the first section then...

e--4---2---7---0-------0-2-4-------2---0--------
B----0---0---0---2---2-------0---0---0---0---0--
G------------------2-----------2-----------1----
D--2---1---6-----------------------------------2
A--------------0-----------2-------2------------
E--------------------------------------2--------

e--3-----5-----7-----2------------
B-----0-----0-----0-----0-----0---
G--------------0-----------2------
D--2-----4-----------1------------
A--------------------------------2
E--------------------------------- x2

e--3-----5-----7-----10-----8-----7--5--3--5--6--7---------------
B-----0-----0-----0---------------------------------0--1--0-----0
G--------------0---------9-----9-----------------------------2---
D--2-----4------------7--------------------0---------------------
A---------------------------------------3-----7--6---------------
E----------------------------------------------------------------

e--3-----5-----7-----2------------
B-----0-----0-----0-----0-----0---
G--------------0-----------2------
D--2-----4-----------1------------
A--------------------------------2
E--------------------------------- x2

e--3-----5-----7-----8-----7--5--0--3-----------2-----0------------
B-----0-----0-----0-----5--------------0-----0-----0-----0-----0---
G--------------0-----2--------------------2-----------------1------
D--2-----4--------------------------------------------------------2
A--------------------------0--------3------------------------------
Login or Register to remove this ad.

8 comments on On the Other Side of the Mountain

Nice job. Second section is

Nice job. Second section is almost exactly the same as the second section of Lagrima by Tarrega.. pretty funny.

lol. I thought the exact same

lol. I thought the exact same thing as I was playing it.

is dificult but so

is dificult but so beautyfull

thanks... for this and for all the others from the ff ost

I've been looking for this

I've been looking for this tab for so long. Thank you for posting it.

How do you play 8 - 2 xD

How do you play
8
-
2

xD

I guess after an operation

I guess after an operation making your fingers longer...well, nevermind. :)
You might already know this, but...
8
-
-
7

its a sick ass song but

its a sick ass song but definetely gonna take some time to perfect

IMHO

5

Accurate tab. It's not so hard when u get how to finger it ;-) Remember to not mute the bass note after the eight note, it should sound while higher line is played. And also you can do some tricks to make sound it brighter.

Correct last riff (only added E line, and corrected 2-8 line ;-) )

e--3-----5-----7-----8-----7--5--0--3-----------2-----0------------
B-----0-----0-----0-----5--------------0-----0-----0-----0-----0---
G--------------0--------------------------2-----------------1------
D--2-----4-----------7--------------------------------------------2
A--------------------------0--------3-----------2------------------
E-----------------------------------------------------0------------

copy-paste it to notepad. Cuz now it's lookin' like a mess, but in notepad it looks good ;-)

one more correction
e--0
B---
G---
D---
A---
E--2
It's wrong, should be 0-0 imho ;-)