Ads

J-E-N-O-V-A (Final Fantasy VII) Guitar Tab

Submitted: Apr 07, 2008 by HeavensUltima (Last updated: Oct 15, 2009)

5
Average: 5 (7 votes)
Download | Listen
Game: Final Fantasy VII
Composer(s): Nobuo Uematsu
Style: 2 or more instruments, Transcription
Series: Final Fantasy

AutoScroll: Slow | Medium | Fast
don't play intro during chorus

intro:

e|--18-17---------------------------|
B|--------18--15--------------------|
G|----------------15-14-------------|this is repeated through out 
D|-----------------------15--12-----|the majority of the song
A|----------------------------------| (it is possible to play as fast as the song)
E|----------------------------------|


main theme:
let ring let ring
e|---------------------------------------|-----1----3--4---1----3--4--6-----8~--|
B|--3----5--6-----3----5--6----8----10~--|--------------------------------------|
G|---------------------------------------|--------------------------------------|
D|---------------------------------------|--------------------------------------|
A|---------------------------------------|--------------------------------------|
E|---------------------------------------|--------------------------------------|


theme 2:
slide into it let ring
e|----/8-----7--5-------8----7--5------------0~--------------------------------------|
B|------------------------------------1--3-------11----10--8----11---10--8-----------|
G|----------------------------------------------------------------------------------7|
D|--------------------------------------------------------------------------8--10----|
A|-----------------------------------------------------------------------------------|
E|-----------------------------------------------------------------------------------|


chorus?:
let ring
e|--5------------3--5----8--7---5-------|--8------6--8--11--10--8----------------8~~-|
B|-----------6-----------------------8--|-----9---------------------11-----11--------|
G|--------------------------------------|------------------------------  ------------|
D|--------------------------------------|--------------------------------------------|
A|--------------------------------------|--------------------------------------------|
E|--------------------------------------|--------------------------------------------|
Login or Register to remove this ad.

5 comments on J-E-N-O-V-A

Finally someone tabbed the

Finally someone tabbed the whole thing! This song is AWESOME!!! THANX for tabbing it(:

I just noticed that the "let

I just noticed that the "let ring" aren't lined up with those little squiggly lines like this ~~~~. oh well just play it how you like.

Nice. There's one part you

5

Nice. There's one part you forgot, though. The intro keeps playing under the "main theme" section the same as how you have it tabbed. When it gets to "theme 2", you slide everything down 2 frets. So it ends up being like this for the last 4 measures:

e|--16-15---------------------------|
B|--------16--13--------------------|
G|----------------13-12-------------|
D|-----------------------13--10-----|
A|----------------------------------|
E|----------------------------------|

Other than that it's perfect.

DoomOfTheLiving, Nice

DoomOfTheLiving, Nice mention. Try sliding down 2 frets each time, screw around with the rhythm and wall-la, you got your own riff. Thats what i did.

Awesome tab. DoomOfTheLiving,

5

Awesome tab.
DoomOfTheLiving, that's correct yeah but there's a different part before that, that some of you might not notice, that goes like this. After the intro starts going two frets down, you play this twice before you go into what DoomOfTheLiving tabbed.

e|-16-13-----------------------|
B|-------14-13-----------------|
G|-------------13-10-----------|
D|-------------------11-10-----|
A|-----------------------------|
E|-----------------------------|