Login or Register to remove this ad.

Golden Saucer (Final Fantasy VII) Guitar Tab

Submitted: Oct 01, 2007 by Kabukibear (Last updated: May 31, 2013)

4.77778
Average: 4.8 (18 votes)
Download | Listen
Game: Final Fantasy VII
Composer(s): Nobuo Uematsu
Style: Arrangement, Fingerstyle
Series: Final Fantasy

AutoScroll: Slow | Medium | Fast
Golden Saucer
~Final Fantasy VII
Composed by: Nobuo Uematsu
Arranged by: Justin Lincoln

Drop D Tuning

     Q    Q    Q    E  E     Q    Q    E  E  E  E     Q    Q    Q    Q
E||-----------------------|---------------------0--|----------------------|
B||-----------------------|--0------------0--------|--3---------3---------|
G||-------0---------0--2--|-------0----2-----5-----|-------0---------0----|
D||--0---------4----------|------------------------|-------0--------------|
A||-----------------------|------------------------|------------2---------|
D||--5---------0----------|--2---------4-----------|--5--------------5----|

  E  E  E  E  Q    Q       Q    Q    Q    E  E     Q    Q    Q    E  E
------------------------|-----------------------|-----------------------|
------------------------|-----------------------|--0--------------0--1--|
--2--0-----0--2---------|-------0---------0--2--|-------0----2----------|
--------4----------2----|--0---------4----------|-----------------------|
--0-----3-----0---------|-----------------------|-----------------------|
------------------------|--5---------0----------|--2---------4----------|
                                            Fine
  Q    Q    Q    Q       E  E  E  E  H             E  E  E  E  E  E  E  E
------------0---------|------------------------||--------------------------|
--3-------------------|--0---------------------||-----------0--------3-----|
-------0---------0----|-----2--0-----0--------*||-----0--2-----2-----------|
----------------------|-----------4-----------*||--4-----0-----0-----0-----|
-------2----3---------|--------5---------------||-----------------4-----2--|
--5-------------------|--------------5---------||--0-----------------------|

  Q    Q    Q    E  E     Q    Q    Q    Q       Q    E  E  Q    Q
-------0---------------|----------------------|-----------------------|
--2--------------0--2--|--3----0--------------|-----------------------|
-------0----2----------|------------2----0----|----------0------------|
-----------------------|-------4---------2----|--4----2-----4----0----|
--0---------4----0-----|-------2---------0----|--5----0-----5---------|
-----------------------|----------------------|-----------------------|

  Q    Q    E  E  E  E     Q    Q    E  E  E  E     Q    Q    E  E  E  E
------------------------|------------0-----------|------------------------|
---------------2--0-----|--2----3-------2--0-----|------------0-----------|
---------------------2--|------------0--------2--|--0----2-------2--0-----|
-------0----2--------0--|--2----4-------------4--|--2------------------4--|
--4---------------------|------------------------|------------2-----------|
------------------------|------------------------|------------------------|

  E  E  E  E  Q    Q       E  E  E  E  E  E  E  E     Q    Q    Q    E  E
------------------------|--------------------------|-------0---------------|
------------------------|-----------0--------3-----|--2--------------0--2--|
--------0---------------|-----0--2-----2-----------|-------0----2----------|
--2--4-----4--2---------|--4-----0-----0-----0-----|-----------------------|
--0-----0-----2----4----|-----------------4-----2--|--0---------4----0-----|
------------------------|--0-----------------------|-----------------------|

  Q    Q    Q    Q       Q    Q    H           Q    Q    Q    Q
----------------------|---------------------|----------------------|
--3----0--------------|---------------------|----------------------|
------------2----0----|-------1----2--------|-------0--------------|
-------4---------2----|--4----2-------------|--2---------4----0----|
-------2---------0----|--0---------4--------|------------2---------|
----------------------|---------------------|--2-------------------|

  E  E  E  E  E  E  E  E     Q    Q    Q    Q       E  E  E  E  E  E  E  E
--------------------------|----------------------|--------------------------|
--------------------------|----------------------|--------------------------|
--------------------------|-------0--------------|--------------0-----0--2--|
--2--------------------0--|--2---------4----0----|--2--0--2--4-----4--------|
--------------------------|------------2---------|--------------------------|
--2--0--2--4--5--0--5--4--|--2-------------------|--2-----------------------|

  Q    Q    Q    Q       E  E  E  E  E  E  E  E     Q    Q    Q    Q
----------------------|--------------------------|----------------------|
-------0--------------|--------------------------|-------0--------------|
--0---------2---------|--0-----------------------|--0---------2---------|
-----------------4----|-----------------------4--|-----------------4----|
----------------------|-----------0--2-----2--0--|----------------------|
--5---------0---------|--5--4--5--------5--------|--5---------0---------|

  E  E  E  E  E  E  E  E     Q    Q    Q    Q       E  E  E  E  E  E  E  E
--------------------------|----------------------|--------------------------|
--------------------------|----------------------|--------------------------|
--0-----0-----0-----0-----|-------0--------------|--------------------------|
-----4-----7-----4-----4--|--2---------4----0----|--2--------------------0--|
--------------------------|------------2---------|--------------------------|
--5-----------------------|--2-------------------|--2--0--2--4--5--0--5--4--|

  Q    Q    Q    Q       E  E  E  E  E  E  E  E     Q    Q    Q    Q
----------------------|--------------------------|----------------------|
----------------------|--------------------------|-------0--------------|
-------0--------------|--------------0-----0--2--|--0---------2---------|
--2---------4----0----|--2--0--2--4-----4--------|-----------------4----|
------------2---------|--------------------------|----------------------|
--2-------------------|--2-----------------------|--5---------0---------|

                                                     D.C. al Fine
  E  E  E  E  E  E  E  E     Q    Q    E  E  E  E     Q    Q    H
--------------------------|---------------------0--|----------------------||
--------------------------|-------0-------0--2-----|--3-------------------||
--0-----------------------|--0---------2-----------|-------0-------------*||
-----------------------4--|------------------------|------------4--------*||
-----------0--2-----2--0--|------------0-----------|-------2----5---------||
--5--4--5--------5--------|--5---------------2-----|--5-------------------||


Duration Legend
---------------
W - whole
H - half
Q - quarter
E - 8th
S - 16th
T - 32nd
X - 64th
. - note dotted
|-n-|  - n-tuplets
Login or Register to remove this ad.

3 comments on Golden Saucer

Absolutely top notch ^_^

Absolutely top notch ^_^ thank you very much :)

love this song, learning

love this song, learning this one next 5/5

Currently learning this.

5

Currently learning this. Fantastic work. I'm playing around with hammer-ons/pulloffs to avoid "double-clicks" (strokes with the same right hand finger twice in a row at fast speed).