Ads

Gold Saucer (Final Fantasy VII) Guitar Tab

Submitted: Mar 24, 2008 by Shade (Last updated: Oct 07, 2009)

3.833335
Average: 3.8 (6 votes)
Download | Listen
Game: Final Fantasy VII
Composer(s): Nobuo Uematsu
Style: Arrangement, Fingerstyle
Series: Final Fantasy

AutoScroll: Slow | Medium | Fast
Gold Saucer
FFVII
Nobuo Uemetsu
Arranged by Shade



e|--------------0--2-------0---2-3-7--5-----5--------0--------------0---- 
B|----3--2--3---------3------------------3-------3--------3--2--3-------0-
G|--2--------------2-------0-------------------------2--------------2---0-
D|--0----2----------------------------4-----4-----------------------------
A|-----------------------------------------------------------------------
E|-----------------------------------------------------------------------


e|---------------0--2-------0--2-3-7--5-------7---3---2p0----------------
B|-----3--2--3---------3-----------------3--------3---------3--2----3----
G|--2---------------2-------0-----------------0-------2------------------
D|--0-----2---------------------------4-----------------------------4----
A|------------------------------------------------------------------5---
E|----------------------------------------------------------------------


e|---------0--2--0------5--4--7--0--2h4---5---2---0---------------------
B|--2--3-------------------0-------------------------3--2--0--3---2-----
G|---------------2---------------1--------7---4---1-------------------2-
D|--2---------------------------------------------------2L--------2-----
A|----------------------------------------------------------------------
E|----------------------------------------------------------------------


e|------------------------------------0--2p0----------------------------
B|---------0-------0--2--3---2--3------------3--2---0---2--3--2--0------
G|--1--2------2-----------------------2-------------1------------1------
D|---------2-------2--2--2------0--------------------------------0------
A|--2--4----------------------------------------------------------------
E|----------------------------------------------------------------------


e|---------0--2---0------5--4--7--0--2h4---5---2---0----------------0---
B|--2--3--------------------0-------------------------3--2---4------0---
G|----------------2---------------1--------7---4---1----------------1---
D|--2----------------------------------------------------2---4------2---
A|----------------------------------------------------------------------
E|----------------------------------------------------------------------


e|-------------------------------------------2-0-----------------2-0--------
B|--0-3-2-----0-0--0-2--0-3-2-----0-0-0-2--3-------2--3-3-3-2--3-----2--3-3-
G|--0------2--0---------0------2--0--------2----------2--------2--------2---
D|-------------------------------------------------2-----------------2------
A|-----------------------------------------------------------------------
E|-----------------------------------------------------------------------


e|----------------------------2-0--------2-0--2-3-7--5----7---3---2p0--------
B|--3p2--0-3-2-----0-0-0-2--3-----2--3-----------------3------3--------3-2-3-
G|-------0------2--0--------2--------2-----0--------------0-------2----------
D|--------------------------------2------------------4---------------------4-
A|-------------------------------------------------------------------------5-
E|---------------------------------------------------------------------------
Login or Register to remove this ad.

4 comments on Gold Saucer

This is the only way to make

This is the only way to make it in standard tuning I guess. Nice work either way.

Thanks, I have realized I

5

Thanks, I have realized I didn't write that entirely right, Ive changed the way I play it, but the tab kinda wraps it up nicely as one whole piece, so play it how you like, its kind of obvious where the error is, right at the end. The original has a unique little rhythm to it that at the time, my brain hadn't retained.

I noticed what you meant

4

I noticed what you meant about the end not sounding right, apart from that it's a very fun song to play and it's a good challenge to try to learn as I'm not too good with fingerstyle yet

There's like, a huge chunk of

There's like, a huge chunk of music missing in the last line. And a few parts have wrong notes...but overall, not bad! I'd only tangled with Kabukibear's beast of an arrangement before...so it's nice to see some lighter fare.