Ads

On The Beach of Dreams - Another World (Chrono Cross) Guitar Tab

Submitted: Apr 17, 2008 by Maxinger (Last updated: Aug 03, 2010)

5
Average: 5 (3 votes)
Download | Listen
Game: Chrono Cross
Composer(s): Yasunori Mitsuda
Style: Arrangement
Series: Chrono

AutoScroll: Slow | Medium | Fast
Dream of the shore - bordering another world
Chrono Cross
Composed by Yasunori Mitsuda
Transcribed by Maximilian Gruber ([email protected])

This tab isn't easy.. so if it gets too freaked out for you, 
just play the first four lines. If you play it all, i'm
proud of you!

             tuning is D #A D G B E  
  (tune e string 2 steps down, a string 1 step up)

  Notes in cornered brackets are natural (normal) harmonics

|----------------------------------------1---0h1------1---0h1----------|
|----------------------------------------------------------------------|
|-<7>------<7>-----<7>-----<7>---------2---2--------2---2--------------|
|-----<7>------<7>-----<7>-----<7>----------------0--------------------|
|----------------------------------------------------------------------|
|------------------------------------0---------------------------------|


|-----1---0h1------0-----------5---3h5------6---5-------3---1h3--------|
|----------------------3-----------------------------------------------|
|-------2--------------------2---2--------2---2-------0---0------------|
|---3------------3---3-------------------------------------------------|
|-0------------0------------------------------------2------------------|
|--------------------------3------------3------------------------------|



|-----1---0-------1---0h1------1---0h1-------1---0h1------0------------|
|-------------------------------------------------------------3--------|
|---0---0-------2---2--------2---2-------------2-----------------------|
|--------------------------0---------------3------------3---3----------|
|-2--------------------------------------0------------0----------------|
|-------------0--------------------------------------------------------|



|-----5---3h5------6---5------3---1h3------1---0-----------------------|
|----------------------------------------------------------------------|
|---2---2--------2---2------0---0--------0---0-------------------------|
|----------------------------------------------------------------------|
|-------------------------2------------2-------------------------------|
|-3------------3-------------------------------------------------------|




|-----1---0h1--10---------------1------------1-------1---5-------------|
|-3---------------------------------6---5h6------3---3-------6---5h6---|
|---2---2-----------10---9h10------------------------------2---2-------|
|-----------------7----7----------3---3--------3---3-------------------|
|-------------------------------0------------0-------------------------|
|-0------------0-----------------------------------------3-------------|



|-5---6---5--3---3---1h3-3---1---0-------------------------------------|
|----------------------------------------------------------------------|
|---2---2------0---0-------0---0---------------------------------------|
|----------------------------------------------------------------------|
|------------2-----------2---------------------------------------------|
|-3--------------------------------------------------------------------|


|-----1---0h1--10---------------1------------1-------1---5-------------|
|-3---------------------------------6---5h6------3---3-------6---5h6---|
|---2---2-----------10---9h10------------------------------2---2-------|
|-----------------7----7----------3---3--------3---3-------------------|
|-------------------------------0------------0-------------------------|
|-0------------0-----------------------------------------3-------------|



|-5---6---5--3---3---1h3-3---1---0---|
|------------------------------------|
|---2---2------0---0-------0---0-----|
|------------------------------------|
|------------2-----------2-----------|
|-3----------------------------------|


|--------------1-------------0-----------------------------------------|
|-----3---1h3------3---1h3---------------------------------------------|
|-3------------------------------5---4h5-------5---4h5-----------------|
|---3---3--------3---3---------0---0---------0---0---------------------|
|-0------------0---------------------------2---------------------------|
|----------------------------7-----------------------------------------|



|-------------0-------------0-------------0----------------------------|
|-1-3-3-------------1h3-----------1h3----------1h3---------------------|
|-------2---2---2---------2---2---------2---2--------------------------|
|-----0-----------------0----------------------------------------------|
|----------------------------------------------------------------------|
|-0-------0---------------------------0--------------------------------|

|--------------1-------------0-------------3---------------------------|
|-----3---1h3------3---1h3---------------------------------------------|
|-3------------------------------5---4h5-------5---4h5-----------------|
|---3---3--------3---3---------0---0---------0---0---------------------|
|-0------------0-------------------------------------------------------|
|----------------------------7-------------7---------------------------|



|-3------------0-------------2-------------------------2-------------2-|
|-----0------------0-------------3---2h3------3---2h3------3---2h3---3-|
|---------2h4----------2h4---------------------------------------------|
|---0---0--------0---0---------4---4--------4---4--------4---4-------4-|
|----------------------------------------------------------------------|
|-5------------5-------------0------------0------------0-------------0-|




|----------------------------------------1---0h1------1---0h1----------|
|----------------------------------------------------------------------|
|--------------------------------------2---2--------2---2--------------|
|-------------------------------------------------0--------------------|
|----------------------------------------------------------------------|
|------------------------------------0---------------------------------|


|-----1---0h1------0-----------5---3h5------6---5-------3---1h3--------|
|----------------------3-----------------------------------------------|
|-------2--------------------2---2--------2---2-------0---0------------|
|---3------------3---3-------------------------------------------------|
|-0------------0------------------------------------2------------------|
|--------------------------3------------3------------------------------|



|-----1---0-------1---0h1------1---0h1-------1---0h1------0------------|
|-------------------------------------------------------------3--------|
|---0---0-------2---2--------2---2-------------2-----------------------|
|--------------------------0---------------3------------3---3----------|
|-2--------------------------------------0------------0----------------|
|-------------0--------------------------------------------------------|



|-----5---3h5------6---5------3---1h3------1---0-----------------------|
|----------------------------------------------------------------------|
|---2---2--------2---2------0---0--------0---0-------------------------|
|----------------------------------------------------------------------|
|-------------------------2------------2-------------------------------|
|-3------------3-------------------------------------------------------|




|-----1---0h1--10---------------1------------1-------1---5-------------|
|-3---------------------------------6---5h6------3---3-------6---5h6---|
|---2---2-----------10---9h10------------------------------2---2-------|
|-----------------7----7----------3---3--------3---3-------------------|
|-------------------------------0------------0-------------------------|
|-0------------0-----------------------------------------3-------------|



|-5---6---5--3---3---1h3-3---1---0-------------------------------------|
|----------------------------------------------------------------------|
|---2---2------0---0-------0---0---------------------------------------|
|----------------------------------------------------------------------|
|------------2-----------2---------------------------------------------|
|-3--------------------------------------------------------------------|


|-----1---0h1--10---------------1------------1-------1---5-------------|
|-3---------------------------------6---5h6------3---3-------6---5h6---|
|---2---2-----------10---9h10------------------------------2---2-------|
|-----------------7----7----------3---3--------3---3-------------------|
|-------------------------------0------------0-------------------------|
|-0------------0-----------------------------------------3-------------|



|-5---6---5--3---3---1h3-3---1---0---|
|------------------------------------|
|---2---2------0---0-------0---0-----|
|------------------------------------|
|------------2-----------2-----------|
|-3----------------------------------|


|--------------1-------------0-----------------------------------------|
|-----3---1h3------3---1h3---------------------------------------------|
|-3------------------------------5---4h5-------5---4h5-----------------|
|---3---3--------3---3---------0---0---------0---0---------------------|
|-0------------0---------------------------2---------------------------|
|----------------------------7-----------------------------------------|



|-------------0-------------0-------------0----------------------------|
|-1-3-3-------------1h3-----------1h3----------1h3---------------------|
|-------2---2---2---------2---2---------2---2--------------------------|
|-----0-----------------0----------------------------------------------|
|----------------------------------------------------------------------|
|-0-------0---------------------------0--------------------------------|

|--------------1-------------0-------------3---------------------------|
|-----3---1h3------3---1h3---------------------------------------------|
|-3------------------------------5---4h5-------5---4h5-----------------|
|---3---3--------3---3---------0---0---------0---0---------------------|
|-0------------0-------------------------------------------------------|
|----------------------------7-------------7---------------------------|



|-3------------0-------------2-------------------------2-------------2-|
|-----0------------0-------------3---2h3------3---2h3------3---2h3---3-|
|---------2h4----------2h4---------------------------------------------|
|---0---0--------0---0---------4---4--------4---4--------4---4-------4-|
|----------------------------------------------------------------------|
|-5------------5-------------0------------0------------0-------------0-|
Login or Register to remove this ad.

8 comments on On The Beach of Dreams - Another World

It's not as cleanly layed

It's not as cleanly layed out as I'd like, but it's still a nice tab.

nice job but I'm not

nice job but I'm not entirely convinced you need the A# tuning.

thank you! I'm sorry my tabs

thank you! I'm sorry my tabs arent in best shape,
but i think it is easy for someone who knows this
song. The A# Tuning isn't necessary, but it makes things
more comfortable and the main reason i used it is the open
resonance. If you play it with force it makes a really
powerful and interesting sound.

can someone give some

can someone give some example how to play this song , in youtube or somewhere?

It would be so nice if

5

It would be so nice if somebody could play this song and upload a video on youtube :) *dream..*

It should be possible to arrange this song for two guitars? Would be even better i think :P

Hm, I believe this song

Hm, I believe this song would make a good tab for 2 or maybe even 3 guitars. At the moment it's hard to get melody and background seperated when playing it. :S

pretty good tab, but It does

5

pretty good tab, but It does sound really good with three guitars.

The tuning is necessary to

The tuning is necessary to keep as many notes ringing for as long as possible.

I've found the challenge in this song is mainly on doing just that in the later measures when you start to emulate the synth keyboards in the song.