Ads

Dimension Break (Chrono Cross) Guitar Tab

Submitted: Oct 01, 2007 by ronito (Last updated: Sep 15, 2009)

5
Average: 5 (12 votes)
Download | Listen
Game: Chrono Cross
Composer(s): Yasunori Mitsuda
Style: Arrangement, Fingerstyle
Series: Chrono

AutoScroll: Slow | Medium | Fast
Acoustic Guitar
     Q    E  E  E  E     Q    Q    Q       Q    H           Q    Q    Q
E||--5----------0--2--|--3---------0----|----------------|-----------------|
B||----------3--------|-------2---------|--3-------------|--L---------3----|
G||-------2-----------|-------2---------|-------0--------|-------0---------|
D||--0----------------|--0--------------|--0----7--------|--0----7---------|
A||-------------------|-----------------|----------------|-----------------|
E||-------------------|-----------------|----------------|-----------------|

  Q    E  E  E  E     Q    Q    Q       Q    Q    Q       H        Q
--5----------0--2--|--3----2----5----|--0--------------|----------------|
----------3--------|--3--------------|--3---------0----|--2--------3----|
-------2-----------|--4--------------|-----------------|--2-------------|
--0----------------|--0----0---------|-------2---------|----------------|
-------------------|-----------------|--0--------------|----------------|
-------------------|--3--------------|-----------------|----------------|

  Q    E  E  E  E     Q    Q    Q       Q    Q    Q       H        Q
--5----------0--2--|--3---------0----|--2--------------|----------------|
----------3--------|-------2---------|--3--------------|--0-------------|
-------2-----------|-------3---------|--2--------------|----------------|
--0----------------|--0---------4----|-------4---------|----------------|
-------------------|------------1----|--2---------0----|----------------|
-------------------|-----------------|-----------------|--4-------------|

  Q    Q    Q       H        Q       H        Q       H        E  E
------------2----|--0-------------|----------------|-----------2--3--|
--3--------------|--3--------3----|--3-------------|-----------------|
--4--------------|--4-------------|--2-------------|--2--------------|
--5--------------|--5-------------|--0-------------|--0--------------|
-------2---------|--0-------------|-----------0----|-----------------|
--0--------------|----------------|----------------|-----------------|

  Q    Q    Q       Q    Q    Q       H           Q    Q    Q
--5----2----9----|--7---------5----|--5--------|--0----2----3----|
--3--------------|--0----3---------|--5--------|--2--------------|
-----------------|-----------------|--7--------|--0---------3----|
--4--------------|-----------------|-----------|-----------------|
-----------------|-----------------|--0--------|--1--------------|
-----------------|-----------------|-----------|-----------------|

  Q    Q    Q       Q    E  E  Q       H        Q       H        E  E
--2----7----2----|----------0--2----|--0-------------|-----------2--3--|
--3--------------|--3---------------|--3-------------|--2--------------|
--2--------------|--4---------------|--2-------------|--2--------------|
-----------------|--5---------------|-----------2----|-----------------|
--2---------0----|-------2----------|--0-------------|-----------------|
-----------------|--0---------------|----------------|-----------------|

  Q    Q    Q       H        Q       Q    Q    E  E     E  E  Q    Q
--5----2----9----|--7--------5----|--5------------0--|--2--3--2---------|
--3--------------|----------------|--5---------3-----|--3---------------|
-----------------|----------------|------------0-----|--2---------------|
--4--------------|----------------|--7----2----------|--------4---------|
-----------------|----------------|--0---------1-----|--2----------0----|
-----------------|--3-------------|------------------|------------------|

  H        Q       Q    Q    Q       H        Q       H
----------------|-------2----3----|--0-------------|-----------||
--3-------------|--0--------------|--3-------------|--2--------||
--2-------------|--0--------------|--4-------------|-----------||
-----------0----|-----------------|--5-------------|-----------||
----------------|-----------------|--0--------0----|--0--------||
--3-------------|--0--------------|----------------|-----------||

Duration Legend
---------------
W - whole
H - half
Q - quarter
E - 8th
S - 16th
T - 32nd
X - 64th
. - note dotted
|-n-|  - n-tuplets
Login or Register to remove this ad.

7 comments on Dimension Break

Very very good. 2 thumbs up

Very very good. 2 thumbs up

Awesome.

Awesome.

this is beautiful, very

5

this is beautiful, very bloomy if you know what i mean

Just 2 thumbs? I believe

5

Just 2 thumbs? I believe that this deserves like 27 thumbs up! Great tab, man

I don't have 27 thumbs.

5

I don't have 27 thumbs.

I have infinite thumbs, and

I have infinite thumbs, and they are all up.

Obviously fantastic, but

5

Obviously fantastic, but there are surprisingly a few weird spots.

Like, I have no idea why this is as it is...

  Q    Q    Q       Q    Q    Q       H           Q    Q    Q
--5----2----9----|--7---------5----|--5--------|--0----2----3----|
--3--------------|--0----3---------|--5--------|--2--------------|
-----------------|-----------------|--7--------|--0---------3----|
--4--------------|-----------------|-----------|-----------------|
-----------------|-----------------|--0--------|--1--------------|
-----------------|-----------------|-----------|-----------------|

In the first measure, the second note should very obviously be a 10 on the E string, not a 2.

And in the second measure, you can play the second note as a 7 on the G string without cutting anything off. Makes me wonder if he threw in some stuff as a troll for lazy players to have to work out for themselves. :p Cause most of the tab is stellar!