Ads

Father and Son (Metal Gear Solid 4) Guitar Tab

Submitted: Jul 17, 2008 by jeffplaysska (Last updated: Oct 18, 2009)

3.75
Average: 3.8 (4 votes)
Download | Listen
Game: Metal Gear Solid 4
Composer(s): Harry Gregson-Williams, Nobuko Toda
Style: Transcription

AutoScroll: Slow | Medium | Fast
Father Son

Metal Gear Solid 4
by Harry Gregson-Williams

this is my first tab i did by ear i think it 
sounds right but the ending im not sure of



E---------------------------------------|
B--1----0-------------------------------|
G-----------0---2-----------------------|
D---------------------------------------|
A---------------------------------------|
E---------------------------------------|



E----------------------------|
B-1---3-----5-------5------3-|
G---------------7-------5----|
D----------------------------|
A----------------------------|
E----------------------------|

E---------------------------------------|
B-6---8-----10------13----------9---12--|
G-----------------------14--12----------|
D---------------------------------------|
A---------------------------------------|
E---------------------------------------|
Login or Register to remove this ad.

5 comments on Father and Son

um the ending is a lil short

4

um the ending is a lil short maybe it should be like

E---------------------------------------------------|
B-6---8-----10------13----------9---12---13---13--12|
G-----------------------14--12----------------------|
D---------------------------------------------------|
A---------------------------------------------------|
E---------------------------------------------------|

It was good. Just not

4

It was good. Just not perfect. Nice job though.

uh.. Keep going

uh.. Keep going

One Note Wrong

The '9' in the last measure should be a '10' in my opinion. It sounds better

the real tab

check this is the original tab

is my creationXDD

------------------------------------4--6-8-11--8--6-8-10--11--11--10--
---4-3-----4-6-8--6-8--4-6-------------------------------------------------
-------3-5----------------------------------------------------------------------
----------------------------------------------------------------------------------
----------------------------------------------------------------------------------
----------------------------------------------------------------------------------

enjoy it l..l_