Ads

The Sunlit Earth (Shadow of the Colossus) Guitar Tab

Submitted: Sep 14, 2008 by Stamen47 (Last updated: Oct 31, 2009)

5
Average: 5 (14 votes)
Download | Listen
Game: Shadow of the Colossus
Composer(s): Kow Otani
Style: Arrangement, Artificial harmonics, Fingerstyle

AutoScroll: Slow | Medium | Fast
                               The Sunlit Earth                                 


     |--3--|  |--3--|  |--3--|  |--3--|  |--3--|  |--3--|   
     E  E  E  E  E  E  E  E  E  E  E  E  E  E  E  E  E  E   
E||--------------------------------------------------------|
B||--1--------0--------3--------1--------0--------3--------|
G||--------2--------2--------2--------2--------2--------2--|
D||-----2--------2--------2--------2--------2--------2-----|
A||--0--------0--------0--------0--------0--------0--------|
E||--------------------------------------------------------|


  |--3--|  |--3--|  |--3--|  |--3--|  |--3--|  |--3--|   
  E  E  E  E  E  E  E  E  E  E  E  E  E  E  E  E  E  E   
-----------------------------0--------------------------|
--1--------0--------3-----------------3--------1--------|
--------2--------2--------2--------2--------2--------2--|
-----3--------3--------3--------3--------3--------3-----|
--0--------0--------0--------0--------0--------0--------|
--------------------------------------------------------|


  |--3--|  |--3--|  |--3--|  |--3--|  |--3--|  |--3--|   
  E  E  E  E  E  E  E  E  E  E  E  E  E  E  E  E  E  E   
--------------------------------------------------------|
--1--------0--------3--------1--------0--------3--------|
--------0--------0--------0--------0--------0--------0--|
-----2--------2--------2--------2--------2--------2-----|
--3--------3--------3--------3--------3--------3--------|
--------------------------------------------------------|


  |--3--|  |--3--|  |--3--|  |--3--|  |--3--|  |---3--|   
  E  E  E  E  E  E  E  E  E  E  E  E  E  E  E  E   E  E   
-----------0--------1--------0---------------------------|
--3-----------------------------------3--------1p--0-----|
--------0--------0--------0--------0--------0---------0--|
-----0--------0--------0--------0--------0---------------|
---------------------------------------------------------|
--3--------3--------3--------3--------3--------3---------|


  |--3--|  |--3--|  |--3--|  |--3--|  |--3--|  |--3--|   
  E  E  E  E  E  E  E  E  E  E  E  E  E  E  E  E  E  E   
--0--------1--------3--------0--------1--------3--------|
--------1--------1--------1--------1--------1--------1--|
-----0--------0--------0--------0--------0--------0-----|
--------------------------------------------------------|
--3--------3--------3--------3--------3--------3--------|
--------------------------------------------------------|


  |--3--|  |--3--|  |--3--|  |--3--|  |--3--|  |--3--|   
  E  E  E  E  E  E  E  E  E  E  E  E  E  E  E  E  E  E   
--0--------1--------3--------3--------1--------0--------|
--------0--------0--------0--------0--------0--------0--|
-----0--------0--------0--------0--------0--------0-----|
--2--------2--------2--------2--------2--------2--------|
--------------------------------------------------------|
--------------------------------------------------------|


  |--3--|  |--3--|  |--3--|  |--3--|  |--3--|  |--3--|   
  E  E  E  E  E  E  E  E  E  E  E  E  E  E  E  E  E  E   
--0-----------------3--------0--------------------------|
-----------3--------------------------3--------3--------|
--------2--------2--------2--------2--------2--------2--|
-----3--------3--------3--------3--------3--------3-----|
--------------------------------------------------------|
--1--------1--------1--------1--------1--------1--------|


  |--3--|  |--3--|  |--3--|  |--3--|  |--3--|  |--3--|   
  E  E  E  E  E  E  E  E  E  E  E  E  E  E  E  E  E  E   
--0-----------------3--------0--------------------------|
-----------3--------------------------3--------3--------|
--------2--------2--------2--------2--------2--------2--|
-----3--------3--------3--------3--------3--------3-----|
--------------------------------------------------------|
--1--------1--------1--------1--------1--------1--------|


  |--3--|  |--3--|  |--3--|  |--3--|  |--3--|  |--3--|   
  E  E  E  E  E  E  E  E  E  E  E  E  E  E  E  E  E  E   
--0--------1--------3--------0--------1--------3--------|
--------1--------1--------1--------1--------1--------1--|
-----2--------2--------2--------2--------2--------2-----|
--------------------------------------------------------|
--0--------0--------0--------0--------0--------0--------|
--------------------------------------------------------|


  |--3--|  |--3--|  |--3--|  |--3--|  |--3--|  |--3--|   
  E  E  E  E  E  E  E  E  E  E  E  E  E  E  E  E  E  E   
--0--------1--------3--------5--------3--------1--------|
--------0--------0--------0--------0--------0--------0--|
-----0--------0--------0--------0--------0--------0-----|
--------------------------------------------------------|
--------------------------------------------------------|
--0--------0--------0--------0--------0--------0--------|


  |--3--|  |--3--|  |--3--|  |--3--|  |--3--|  |--3--|   
  E  E  E  E  E  E  E  E  E  E  E  E  E  E  E  E  E  E   
--0--------1--------3--------0--------1--------3--------|
--------------------------------------------------------|
--------2--------2--------2--------2--------2--------2--|
-----3--------3--------3--------3--------3--------3-----|
--------------------------------------------------------|
--1--------1--------1--------1--------1--------1--------|


  |--3--|  |--3--|  |--3--|  |--3--|  |--3--|  |--3--|   
  E  E  E  E  E  E  E  E  E  E  E  E  E  E  E  E  E  E   
--0-----------------------------------------------------|
-----------3--------1--0-----0--------0--------0--------|
--------2--------2--------2-----1--------1--------1-----|
-----2--------2--------------------2--------2--------2--|
--------------------------------------------------------|
--0--------0--------0--------0--------0--------0--------|


  |--3--|  |--3--|  |--3--|  |--3--|  |--3--|  |--3--|   
  E  E  E  E  E  E  E  E  E  E  E  E  E  E  E  E  E  E   
--------------------------------------------------------|
--1--------1--------0--------1--------1--------0--------|
--------0--------0--------0--------0--------0--------0--|
-----2--------2--------2--------2--------2--------2-----|
--3--------3--------3--------3--------3--------3--------|
--------------------------------------------------------|


  |--3--|  |--3--|  |--3--|  |--3--|  |--3--|  |--3--|   
  E  E  E  E  E  E  E  E  E  E  E  E  E  E  E  E  E  E   
-----------------------------------------------0--------|
--3--------3--------1--------3--------3-----------------|
--------2--------2--------2--------2--------2--------2--|
-----2--------2--------2--------2--------2--------2-----|
--0--------0--------0--------0--------0--------0--------|
--------------------------------------------------------|


  |--3--|  |--3--|  |--3--|  |--3--|  |--3--|  |--3--|   
  E  E  E  E  E  E  E  E  E  E  E  E  E  E  E  E  E  E   
--------------------------------------------------------|
--1--------1--------0--------1--------1--------0--------|
--------0--------0--------0--------0--------0--------0--|
-----2--------2--------2--------2--------2--------2-----|
--3--------3--------3--------3--------3--------3--------|
--------------------------------------------------------|


  |--3--|  |--3--|  |--3--|  |--3--|  |--3--|        
  E  E  E  E  E  E  E  E  E  E  E  E  E  E  E  Q     
-----------------------------------------------0----|
--3--------3--------1--------3--------3-------------|
--------2--------2--------2--------2--------2-------|
-----2--------2--------2--------2--------2----------|
--0--------0--------0--------0--------0--------0----|
----------------------------------------------------|


  |--3--|  |--3--|  |--3--|  |--3--|  |--3--|  |--3--|   
  E  E  E  E  E  E  E  E  E  E  E  E  E  E  E  E  E  E   
-----------0--------1--------0--------------------------|
--3-----------------------------------3--------1--------|
--------2--------2--------2--------2--------2--------2--|
-----3--------3--------3--------3--------3--------3-----|
--------------------------------------------------------|
--1--------1--------1--------1--------1--------1--------|


  |--3--|  |--3--|  |--3--|  |---3--|   |--3--|  |--3--|   
  E  E  E  E  E  E  E  E  E  E   E  E   E  E  E  E  E  E   
--0-------------------------------------------------------|
-----3--1--0--------3-------------------------------------|
--------------1--------1-----2p--1------------------------|
-----------------2--------2---------3p--2--------2--------|
-------------------------------------------2--------2-----|
--0--------------------------0----------------0--------0--|


  |--3--|  |--3--|  |--3--|  |--3--|  |--3--|  |--3--|   
  E  E  E  E  E  E  E  E  E  E  E  E  E  E  E  E  E  E   
-----------0--------1--------0--------------------------|
--3-----------------------------------3--------1--------|
--------2--------2--------2--------2--------2--------2--|
-----3--------3--------3--------3--------3--------3-----|
--------------------------------------------------------|
--1--------1--------1--------1--------1--------1--------|


  H        Q    H        Q     
--0---------------------------|
--0--------3----1--------0----|
-----------2----0-------------|
--2--------0-------------2----|
----------------3--------2----|
------------------------------|


  ^                                                      
  |--3--|  |--3--|  |--3--|  |--3--|  |--3--|  |--3--|   
  E  E  E  E  E  E  E  E  E  E  E  E  E  E  E  E  E  E   
--------------------------------------------------------|
--1--------1--------0--------1--------1--------0--------|
--0-----0--------0--------0--------0--------0--------0--|
--2--2--------2--------2--------2--------2--------2-----|
--3--------3--------3--------3--------3--------3--------|
--------------------------------------------------------|


  ^                                                      
  |--3--|  |--3--|  |--3--|  |--3--|  |--3--|  |--3--|   
  E  E  E  E  E  E  E  E  E  E  E  E  E  E  E  E  E  E   
-----------------------------------------------0--------|
--3--------3--------1--------3--------3-----------------|
--2-----2--------2--------2--------2--------2--------2--|
--2--2--------2--------2--------2--------2--------2-----|
--0--------0--------0--------0--------0--------0--------|
--------------------------------------------------------|


  ^                                                      
  |--3--|  |--3--|  |--3--|  |--3--|  |--3--|  |--3--|   
  E  E  E  E  E  E  E  E  E  E  E  E  E  E  E  E  E  E   
--------------------------------------------------------|
--1--------1--------0--------1--------1--------0--------|
--0-----0--------0--------0--------0--------0--------0--|
--2--2--------2--------2--------2--------2--------2-----|
--3--------3--------3--------3--------3--------3--------|
--------------------------------------------------------|


  ^                                                  
  |--3--|  |--3--|  |--3--|  |--3--|  |--3--|        
  E  E  E  E  E  E  E  E  E  E  E  E  E  E  E  Q     
-----------------------------------------------0----|
--3--------3--------1--------3--------3-------------|
--2-----2--------2--------2--------2--------2-------|
--2--2--------2--------2--------2--------2----------|
--0--------0--------0--------0--------0--------0----|
----------------------------------------------------|


  |--3--|  |--3--|  |--3--|  |--3--|  |--3--|  |--3--|   
  E  E  E  E  E  E  E  E  E  E  E  E  E  E  E  E  E  E   
-----------0--------1--------0--------------------------|
--3-----------------------------------3--------1--------|
--2-----2--------2--------2--------2--------2--------2--|
--3--3--------3--------3--------3--------3--------3-----|
--------------------------------------------------------|
--1--------1--------1--------1--------1--------1--------|


  |--3--|  |--3--|  |--3--|  |---3--|   |--3--|  |--3--|   
  E  E  E  E  E  E  E  E  E  E   E  E   E  E  E  E  E  E   
--0-------------------------------------------------------|
-----3--1--0--------3-------------------------------------|
--------------1--------1-----2p--1------------------------|
-----------------2--------2---------3p--2--------2--------|
-------------------------------------------2--------2-----|
--0--------------------------0----------------0--------0--|


  |--3--|  |--3--|  |--3--|  |--3--|  |--3--|  |--3--|   
  E  E  E  E  E  E  E  E  E  E  E  E  E  E  E  E  E  E   
-----------0--------1--------0--------------------------|
--3-----------------------------------3--------1--------|
--------2--------2--------2--------2--------2--------2--|
-----3--------3--------3--------3--------3--------3-----|
--------------------------------------------------------|
--1--------1--------1--------1--------1--------1--------|


  |--3--|  |--3--|  |--3--|  |--3--|  |--3--|  |--3--|   
  E  E  E  E  E  E  E  E  E  E  E  E  E  E  E  E  E  E   
--------------------3-----3--------------------3-----3--|
--1-----1--------------------1-----1--------------------|
-----------0-----0--------------------0-----0-----------|
-----2--------2--------2--------2--------2--------2-----|
--3--------3--------3--------3--------3--------3--------|
--------------------------------------------------------|


  |--3--|  |--3--|  |--3--|  |---3--|  |---3--|  |---3--|   
  E  E  E  E  E  E  E  E  E  E   E  E  E   E  E  E   E  E   
--3--------1--------0--------------------------------------|
--------1--------1--------1--3p--1-----3p--1-----3p--1-----|
-----1--------1--------1------------1---------1---------1--|
-----------------------------------------------------------|
--3--------3--------3--------3-----------------------------|
-----------------------------------------------------------|


  |--3--|  |--3--|  |--3--|  |--3--|  |--3--|  |--3--|   
  E  E  E  E  E  E  E  E  E  E  E  E  E  E  E  E  E  E   
--------------------3--------------------------3--------|
--------------------------------------------------------|
--5--------------------------5--------------------------|
-----------5--------------------------5-----------------|
--------3--------3--------3--------3--------3--------3--|
-----3--------3--------3--------3--------3--------3-----|


  |--3--|  |--3--|  |--3--|  |--3--|   |--3--|         
  E  E  E  E  E  E  E  E  E  E  E  E   E  E  E   Q     
--3---------------------------------------------------|
-----------6--------5--------3------------------------|
------------------------------------------------------|
------------------------------------------------------|
--------3--------3--------3--------3h--7-----3h--7----|
-----4--------4--------4--------4---------4-----------|


  ^                              ^            ^             
  H.           Q    Q    Q       H.           H.            
--0---------------------------|--2------------1------------|
--1----------------------1----|--3------------1------------|
--2------------0----2---------|--2------------2------------|
--2---------------------------|--0------------3------------|
--0-----------------0----3----|--0------------3------------|
---------------3--------------|---------------1------------|


  ^              AH     AH     AH        AH                         
  H.             Q      Q      Q         W.                 
--5------------<>17---<>17---<>19---|--<>17---------------||
--2---------------------------------|---------------------||
--2---------------------------------|---------------------||
--2---------------------------------|---------------------||
--0---------------------------------|---------------------||
------------------------------------|---------------------||




Duration Legend
---------------
W - whole
H - half
Q - quarter
E - 8th
S - 16th
T - 32nd
X - 64th
. - note dotted
|-n-|  - n-tuplets


Tablature Legend
----------------
L - tied note
> - accentuded note
AH - artificial harmonic
h - hammer on
p - pull off
< - fade in
^ - brush up
v - brush down
Login or Register to remove this ad.

6 comments on The Sunlit Earth

Absolutely amazing. Bravo.

5

Absolutely amazing. Bravo.

Beautiful, I love this.

5

Beautiful, I love this.

beautiful song and beautiful

beautiful song and beautiful tabbing i love this game

Wow

5

Wow man this is my favorite song from my favorite game... you did an incredible job

Beautiful tab to a beautiful song from a beautiful game.

5

Amazing tab to an amazing song from an amazing game. Very good job.

That's epic!

5

Great TAB, very accurate.

And even greater music! (sorry, it just is) =D