Ads

Lazy Afternoons (Kingdom Hearts 2) Guitar Tab

Submitted: Nov 01, 2008 by madmanadam1 (Last updated: Nov 14, 2009)

4.333335
Average: 4.3 (3 votes)
Download | Listen
Game: Kingdom Hearts 2
Composer(s): Yoko Shimomura
Style: Fingerstyle, Transcription
Series: Kingdom Hearts

AutoScroll: Slow | Medium | Fast
Acoustic Guitar

This isnt an arangement, This is the actual Guitar
           ^     ^                    ^     ^            
     E  E  E  E  E  E  E  E     E  E  E  E  E  E  E  E   
E||--------------------------|--------------------------|
B||--------0-----1-----------|--------0-----------------|
G||-----------------0-----0--|--------------2-----------|
D||--------0-----2-----2-----|--------0-----2--2-----2--|
A||-----2-----2--------------|-----2-----2--3-----3-----|
E||--3-----3-----3-----------|--3-----3-----------------|


        ^     ^                    ^     ^            
  E  E  E  E  E  E  E  E     E  E  E  E  E  E  E  E   
--------------------------|--------------------------|
--------0-----1-----------|--------0-----------------|
-----------------0-----0--|--------------2-----------|
--------0-----2-----2-----|--------0-----2--2-----2--|
-----2-----2--------------|-----2-----2--3-----3-----|
--3-----3-----3-----------|--3-----3-----------------|


        ^     ^                    ^     ^            
  E  E  E  E  E  E  E  E     E  E  E  E  E  E  E  E   
--------------------------|--------------------------|
--------0-----------------|--------------------------|
--------------2-----------|--------2-----0-----------|
-----0-----0-----4--0--4--|-----------------2-----2--|
--------2-----0-----------|-----0--0--0--3-----3-----|
--3-----3-----2-----------|--1-----1-----3-----------|


  ^     ^     ^                    ^     ^            
  E  E  E  E  E  E  E  E     E  E  E  E  E  E  E  E   
--------------------------|--------------------------|
--------------------------|--------0-----1--0--------|
--------0-----0-----------|--------------0-----0-----|
-----1--1--1--1--1-----1--|-----0--0--0--0--------0--|
--3-----3-----3-----3-----|--------------------------|
--3-----------------------|--3-----3-----------------|


        ^     ^                    ^     ^                  ^     ^            
  E  E  E  E  Q.     S. T    E  E  E  E  Q    Q       E  E  E  E  E  E  E  E   
--------------------------|------------------------|--------------------------|
--------------0------L----|------------------------|--------------------------|
--------------0-----------|--------------0---------|--------------------------|
-----0--0-----0-----------|--------2-----2---------|--------0-----2-----------|
--------8-----------------|-----3--3--3--3----3----|-----2-----2--4--2--4--0--|
--1-----7--1--------------|--0-----3---------------|--------3-----5-----------|


        ^     ^                                       
  E  E  E  E  E  E  E  E     E  E  E  E  E  E  E  E   
--------------------------|--------------------------|
--------------------------|--------------0-----------|
--------------------------|-----------2-----2--------|
--------0-----4--0--------|-----0--3-----------3--0--|
-----0--0--0--5-----0-----|--2-----------------------|
--------------5--------2--|--------------------------|


  E  E  E  E  E  E  E  E     E  E  E  E  E  E  E  E   
--------------------------|--------------------------|
--------------0-----------|--------------------------|
-----------1-----1--------|--------2-----------0-----|
--------2-----------2-----|-----2-----2-----2-----2--|
-----2-----------------2--|--0-----------------------|
--0-----------------------|--------------3-----------|


  E  E  E  E  E  E  E  E     E  E  E  E  E  E  E  E   
--------------------------|--------------------------|
--------------------------|--------------------------|
-----------2--------------|--------------------------|
--------4-----------1--4--|--------2-----------1-----|
-----3-----------0--------|-----2-----2-----2-----2--|
--2-----------------------|--0-----------------------|


              ^                          ^                          ^          
  E  E  E  E  E  E  E  E     E  E  E  E  E  E  E  E     E  E  E  E  E  Q.      
--------------------------|--------------------------|------------------------|
--------------------------|--------------1-----------|------------------------|
--------------2-----------|--------------------------|------------------------|
--------0-----2-----------|--------------2-----------|--------0-----1---------|
-----2-----2--4--0--4--0--|--------3-----3--3--------|-----------0--2---------|
--------------------------|-----3-----3--3-----3-----|-----2--------2---------|


                                         ^                                    
  E  E  E  E  E  E  E  E     E  E  E  E  E  E  Q       E  E  E  E  Q    Q     
--------------------------|-------------------------|--------------0---------|
--------------------------|-------------------------|--------1---------------|
--------------------------|--------------2----------|-----0--0--0--0----0----|
--------2-----------1-----|--------0-----2----------|------------------------|
-----2-----2-----2-----2--|-----2-----2--4----------|--3---------------------|
--0-----------------------|-------------------------|------------------------|


              ^                     ^     ^            
  E  E  E  E  E.  T T Q       E  E  E  E  E  E  E  E   
---------------------------|--------------------------|
---------------------------|--------0-----1-----------|
--------------2---L--------|-----------------0-----0--|
--------------4---L--------|--------0-----2-----2-----|
-----0-----0--0-------0----|-----2-----2--------------|
--------2------------------|--3-----3-----3-----------|


        ^     ^              
  E  E  E  E  E  E  E  E     
---------------------------||
--------0------------------||
--------------2-----------*||
--------0-----2--2-----2--*||
-----2-----2--3-----3------||
--3-----3------------------||




Duration Legend
---------------
W - whole
H - half
Q - quarter
E - 8th
S - 16th
T - 32nd
X - 64th
Login or Register to remove this ad.

11 comments on Lazy Afternoons

Reminder

Just to remind you folks This isnt an arrangement, Its the guitar in the background of the song :D

Who said it is an

Who said it is an arrangement?

Lol

No one, Im just telling You guys just in case O.o

Warning: Pointless!

From that reminder I can tell that it is important to you that people realize this TAB is a transcription but not an arrangement. Why is that so? Does it make a TAB any better if it is a transcription?

Please excuse the pointlessness of this comment, I'm really bored. ^^

Do you know the difference

I think he was making sure people knew that so they wouldn't start playing it and wonder where the hell the melody is.

You definitely have a point

You definitely have a point there. :P
EDIT: Duh, hit wrong "reply"-button.
EDIT2: I saw you edited that first line away. >:D

heh yeah I was worried it

heh yeah I was worried it would be taken the wrong way.

It's okay. I took it the

It's okay. I took it the right way anyway. ;)

This is really awesome,

This is really awesome, sweet. Now I can play along with other instrumentalist with this song, without taking over the whole melody, this is great stuff man, thanks!

Aw I already started learning

Aw I already started learning it before I read it wasn't the actual arrangement :'(

What does this mean?

What does this mean?