Penelo's Theme (Final Fantasy XII) Guitar Tab

Submitted: Nov 18, 2007 by Kabukibear (Last updated: Sep 24, 2009)

5
Average: 5 (10 votes)
Download | Listen
Game: Final Fantasy XII
Composer(s): Nobuo Uematsu, Hitoshi Sakimoto
Style: Arrangement, Fingerstyle
Series: Final Fantasy

AutoScroll: Slow | Medium | Fast
Penelo's Theme                                  
~Final Fantasy XII~
Composed by: Hitoshi Sakimoto
Arranged by: Justin Lincoln

Drop D Tuning

     E  E  E  E  E  E  E  E     E  Q    E  E  E  E  E   
E||--------------------------|-----1----1--L--0-----0--|
B||-----------------------1--|--L-------3--------3-----|
G||--2-----2--3--L-----3--0--|--L-------3--L-----------|
D||-----3-----3--L--5--3-----|-------------------------|
A||-----------------------0--|--L-------1--L-----------|
D||--3-----3--5--L-----5-----|-------------------------|


  Q    E  E  E  E  E  E     E  E  E  E  E  Q.        E  E  E  E  E  E  E  E   
-------------------------|------------------------|--------------------------|
--1----------------------|------------------------|-----------------------1--|
--2----------------------|--1--0------------------|--2-----2--3--L-----3--0--|
--3----------------------|--3-----3--1--L---------|-----3-----3--L--5--3-----|
-------0--1--L--0-----3--|--4--------1--L--1------|-----------------------0--|
--3----------------5-----|-----------1--L---------|--3-----3--5--L-----5-----|


  Q    E  E  E  E  E  E     E  E  E  E  E  E  E  E     E  E  E  E  E  Q.        
-------3--1--L--3--5--6--|--L--5--1--------1--0--1--|--L----------------------||
--L-------3--L-----------|-----------3--L-----------|-------------------------||
--L-------2--L-----5-----|-----------3--L-----0-----|-----0--1--0--L---------*||
----------0--L-----------|--------------------------|-----------------1------*||
--L----------------3-----|-----0--1--3--L-----3-----|--4--------1--L----------||
-------------------------|--5-----------------------|-----------1--L----------||


  E  E  E  E  E  E  E  E     E  E  E  E  E  E  E  S S  
--------------------------|---------------------------|
--------------4-----------|--L-----------------L--2-1-|
--------1-----------1-----|--------1-----------1------|
-----3-----3-----3-----3--|-----3-----3-----3---------|
--4-----------4-----------|--4-----------4------------|
--------------------------|---------------------------|


  E  E  E  E  E  E  E  E     E  E  E  E  E  E  E  E   
--------------------------|--------------------------|
--------------------------|--------------------------|
--3-----------------------|--5-----------------------|
--------6-----------5--6--|--------3-----5-----6-----|
-----3-----3-----3--------|-----3-----3-----3-----3--|
--3-----------3-----------|--3-----------3-----------|


  |--3--|  |--3--|  |--3--|  |--3--|     |--3--|  |--3--|  |--3--|  |--3--|   
  E  E  E  E  E  E  E  E  E  E  E  E     E  E  E  E  E  E  E  E  E  E  E  E   
--------------------------------------|--------------------------------------|
--------------------------------------|--------------------------------------|
--3--1--0-----0--1--3--1--0-----0--1--|--3--1--0-----0--1--3--1--0-----0--1--|
-----------3-----------------3--------|-----------3-----------------3--------|
--4-----------------4-----------------|--4-----------------4-----------------|
--------------------------------------|--------------------------------------|


  E  E  E  E  E  E  E  E     E  E  E  E  E  E  E  E   
--------------------------|-----4-----6--6-----------|
-----------------6--------|--7-----------------------|
--3--5-----------------5--|--6--------------6--------|
--3--------3--------3-----|--------------------4-----|
--------3-----------------|--------4--------------4--|
--3-----------3-----------|--4-----------4-----------|


  Q     E.   S E   E  E  E     Q    Q     Q     Q       Q    E.  S E  E  E  E   
--8------------8------8--9--|------------------------|--6----------6-----6--7--|
-------11---11----11--------|--9---------------------|-------9---9----9--------|
--8------------8------------|-------8----------------|--6----------6-----------|
----------------------------|------------11----10----|-------------------------|
--9------------9------------|--8----------------8----|--7----------7-----------|
----------------------------|------------------------|-------------------------|


  Q    Q    Q    Q       E  E  E  E  E  E  Q       E  E  Q    E  E  Q     
----------------------|-------------------------|------------------------|
--7-------------------|--5--3--3--2--2-----0----|--L-----0----L-----0----|
-------6--------------|--6--4--4--2--2--2--1----|--L--2--1----L--2--1----|
------------9----8----|-----------------4--2----|--L--4--2----L--4--2----|
--6--------------6----|-------------------------|-----0----------0-------|
----------------------|--0-----------------0----|--L-----0----L-----0----|


  E  E  E  E  Q    Q         E  E  E  E  E  E  E  E   
------------------------||---8-----6-----------5-----|
--L-----0-----0---------||---------------------------|
--L--2--1--2--1----2----||*-----6-----6-----6-----6--|
--L--4--2--4--2----4----||*--------------------------|
-----0-----0------------||---4-----------4-----------|
--L-----0-----0---------||---------------------------|


  E  E  E  E  E  E  E  E     E  E  E  E  E  E  E  E   
--5-----------------------|--8-----6-----------4-----|
--------6-----------------|--------------------------|
-----5-----5--------5-----|-----6-----6-----6-----6--|
-----------------3-----3--|--------------------------|
--3-----------3-----------|--4-----------4-----------|
--------------------------|--------------------------|

1st ending--------------,     2nd ending-------
  E  E  E  E  E  Q    E       E  E  E  E  H           Q    E  E  E  E  E  E   
--4--3--3-----------------||--4--3--3--------------|-------------------------|
--1--------4--L-------4---||--1--------4--L--------|----------------------1--|
-----------0--L--3-------*||-----------0--L--------|--2----2--3-----3-----0--|
-------------------------*||-----------------------|----------3-----3--------|
-----------1--L-----------||-----------1--L--------|--3----3--------------0--|
--1-----------------------||--1--------------------|--3----3--5-----5--------|

                                                                      da capo
  E  E  Q    Q    E  E     E  E  E  E  E  E  E  E     E  E  E  E  E  Q    E   
--------3----1----------|--------------------------|-----------------0----3--|
-----1--1----1----------|--------------------------|--------------1----------|
-----0--0----2-------0--|--1--0--------------------|-----0--0--3-------------|
-------------0----3-----|--3-----3--1--L-----1--3--|--L----------------------|
-----0--0---------3-----|--4--------1--L--1--------|--3----------------------|
------------------------|-----------1--L-----------|-------------------------|


  W                  
--5----------------||
-------------------||
--5----------------||
-------------------||
-------------------||
--3----------------||




Duration Legend
---------------
W - whole
H - half
Q - quarter
E - 8th
S - 16th
T - 32nd
X - 64th
. - note dotted
|-n-|  - n-tuplets


Tablature Legend
----------------
L - tied note
da capo - go back to the beginning, ignore this on the second time
Login or Register to remove this ad.

3 comments on Penelo's Theme

edit. nevermind, it's

edit. nevermind, it's working now.

very nice, and lovable !

5

very nice, and lovable !

try as i may, i can't seem

5

try as i may, i can't seem to recall this piece...