Otherworld (Final Fantasy X) Bass Tab

Submitted: Oct 02, 2007 by archard (Last updated: May 07, 2008)

5
Average: 5 (2 votes)
Download | Listen
Game: Final Fantasy X
Composer(s): Nobuo Uematsu, Junya Nakano, Masashi Hamauzu
Style: Transcription
Series: Final Fantasy

AutoScroll: Slow | Medium | Fast
Other World
Final Fantasy X

Not too sure about the tuning on this one
but tune down 3 frets and you can play along no bother.

Intro
E---------------------------------------------------------
B--------2---------------------2--------------------------
F#-------------------2--------------2p1-2p1-2p1-2p1-------
C#--0--0------0--0--------0--0-----------------------3p2--

E---------------------------------------------------------
B--------2---------------------2--------------------------
F#-------------------2--------------2p1-2p1-2p1-2p1-------
C#--0--0------0--0--------0--0-----------------------3p2--

Main Riff
E-----------------------------
B-----------------------------
F#------------------2-1-------
C#--0-0-2-0-0-3-0-0-----3-2---

Fill
E-----------------------------------------------------------------------
B------------2-0-------------1-0-2-0-----------------------------2------
F#----2-1---------2---2-1---4---------2-0-------2-1---2-2-0-2-0-2-------
C#--0-----3-2-------0-----3---------------3-2-0-----3-------------------

E----------------
B----------------
F#----------0-2--
C#--0-0-2-3------

(before the spoken part)
E---------------------------------
B---------------------------------
F#-----2~-----1~------2~------1~--
C#-0~-----0~-----0~-------0~------

E--------------------------------------------------------
B--------------------------------------------------------
F#------------2-------------------------2-----2-1--------
C#--0-0-2-0-0---0-0-2-3-2-0-2-0-0-2-0-0---0-0-----3-2-3--X6

E----------------------------------------
B----------------0--2--0-----------------
F#----------0--2-----------2--0----------
C#--0--2--3----------------------3--2---- X3

Tab by: [email protected]
http://www.geocities.com/vganimegt
Login or Register to remove this ad.

1 comment on Otherworld

this cant be right , i

this cant be right , i learned one off ultimate-guitar.com and sounded great but ill try this one if u insist