Grasswalk (Plants vs Zombies) Ukulele Tab

Submitted: Jan 10, 2018 by ark626

3
Average: 3 (2 votes)
Download | Listen
Game: Plants vs Zombies
Composer(s): Laura Shigihara
Style: Transcription

AutoScroll: Slow | Medium | Fast
                                       Grasswalk
                                   Plants vs Zombies
                              Composed by Laura Shigihara
                            Tabbed by the Ark626 09.01.2018

|----12----------07----12----12----------09------------12----------07----12----10----09----09----07-|
|----------------------12------------------------------------------------12-------------------------|
|------------------------------------------------------------------------------------------11-------|
|----------------08------------------------------------------------08----------------------10-------|


-------12----11----------10----09----05----08----07--------08------------------10----11----12-----|
-------11----------12----------08----------08--------------08-------------------------------------|
-------------------12--------------------------------------07-------------------------------------|
-------12----------------------10-----------------------------------------------------------------|


-13--------12----------07----12----12----------09------------12----------07----12----10----09----09-|
-----------------------------12------------------------------------------------12-------------------|
-------------------------------------------------------------------------------------------------11-|
-----------------------08------------------------------------------------08----------------------10-|


---07--------12----11----------10----09----05----08----07--------08----------------------10----09---|
-------------11----------12----------08----------08--------------08---------------------------------|
-------------------------12--------------------------------------07---------------------------------|
-------------12----------------------10-------------------------------------------------------------|


---08--------05----------12----------05----------07----08--------07----------02----------------05---|
-------------05--------------------------------------------------07----------------------04---------|
-------------04--------------------------------------------------06----------------------04---------|
-------------------------------------------------------09--------------------------------04---------|


-----------------------------07----------07----------07--------------12----------05----------07-----|
-07--------------05----------------------07--------------------------12----------05-----------------|
----------------------------------------------------------------------------------------------------|
-07--------------05---------------------------------------------------------------------------------|


-------05--------------12----11----12------------08------------05------------12----11----12----02---|
-------05----------------------------------07----08--------------------------12---------------------|
----------------------------------------------------------------------------------------------------|
-----------------------12------------------07--------------------------------------------------02---|


-05------------07--------------09----------------07--------------------11----------------02---------|
----------------------------------------------------------------------------------------------------|
----------------------------------------------------------------------------------------------------|
-05------------07-----------------------------------------------------------------------------------|


-07------------12--------09----02----12--------03----02--------12--------09----02----12----05----03-|
---------------12--------------------12--------02--------------12--------------------12----------02-|
-------------------------------------12----------------------------------------------12-------------|
----------------------------------------------------------------------------------------------------|


---02--------12--------03----02----12--------03----02--------12--------03--------02--------05-------|
----------------------------------------------------------------------------------------------------|
-----------------------------------12--------------------------------------------02-----------------|
-------------12--------------------12------------------------12------------------02-----------------|


-------12--------09----02----12--------03----02--------12--------09----02----12----05----03----02---|
-------12--------------------12--------02--------------12--------------------12----------02---------|
-----------------------------12----------------------------------------------12---------------------|
----------------------------------------------------------------------------------------------------|


-----12--------03----02----12--------03----02--------12--------03--------10--------05------------12-|
-------------------------------------------------------------------------10-------------------------|
---------------------------12--------------------------------------------09-------------------------|
-----12--------------------12------------------------12---------------------------------------------|


-----------11----07----12----------09--------------12------------------09----10----11----12-------|
---------------------------------------------------12---------------------------------------------|
--------------------------------------------------------------------------------------------------|
-----------------------12-------------------------------------------------------------------------|


-12----------11----07----12----------09--------------12------------------09----10----11----12-------|
-----------------------------------------------------12---------------------------------------------|
----------------------------------------------------------------------------------------------------|
-------------------------12-------------------------------------------------------------------------|


---12--------------------09------------------------12----11----12----03----09-----------------------|
-------------12--------------------12--------------------------12--------------------12-------------|
-------------12--------------------12--------------------------12--------------------12-------------|
-------------------------09------------------------------------------------09-----------------------|


-12----11----12----02----03------------------------05------------------07----------------------12---|
-------------12----------03--------12--------------05--------05--------07---------------------------|
-------------12--------------------12---------------------------------------------------------------|
-------------------------------------------------------------05-------------------------------------|


-------------------02--------10--------------03----02----------07----10------------------------09---|
-------12----------03--------10--------------03----------12--------------------10-------------------|
-------12------------------------------------------------12-----------------------------------------|
-------------------02------------------------------------------------10--------10--------------09---|


-----03----12----02----------------------12------------------07----05----03----02--------12-------|
-----03--------------------08------------12-------------------------------------------------------|
---------------------------08---------------------------------------------------------------------|
--------------------------------------------------------------------------------------------------|


---------12----09--------------09--------12----11----12----------09--------------09--------12----11-|
-12----------------------12--------------------------12----05--------------12-----------------------|
-12----------------------12--------------------------12--------------------12-----------------------|
---------------09------------------------------------------05----09---------------------------------|


---12----02----03--------------03--------05--------------05----07--------09------------12-----------|
---12----------03--------12--------------05--------05----------07--------------------------------12-|
---12--------------------12----------------------------------------------------------------------12-|
---------02----------------------------------------05-----------------------------------------------|


-----12----02--------10----12--------03----02----------------10--------------10--------09--------03-|
-----------03--------10--------------03----------12----12--------------10------------------------03-|
-------------------------------------------------12----12-------------------------------------------|
-----------02------------------------------------------------10--------10--------------09-----------|


---------02--------------02--------12--------09--------07----05----03----02--------12--------12---|
---02--------------08--------------12----------------------------------------------12-------------|
-------------------08-----------------------------------------------------------------------------|
---02---------------------------------------------------------------------------------------------|


-03------07--------08------------12----13----12----03--------------12----07--------12----13----12---|
---------07--------07------------12----------------------02------------------------12----------12---|
---------06-----------------------------------------------------------------------------------------|
---------------------------------------------------------02------------------------------13---------|


-02----03----07--------------------05----12----05----03----07----------------------06----07----12---|
-------03----------12--------------------------------------07----------------------05---------------|
-------------------12-------------------------------------------------------------------------------|
-----------------------------------------------05---------------------------------------------------|


-------10--------08------------------02----------07----08--------05------------12----------03----12-|
-------10----------------------12----------05----------08----------------------12-------------------|
-------09----------------------12----------------------------------------------11-------------------|
-------------------------------------------05-------------------------------------------------------|


---02----------03--------------12----03----12----07----07----03----12----07--------08----05----12---|
-------------------------------12-------------------------------------------------------------------|
----------------------------------------------------------------------------------------------------|
----------------------------------------------------------------------------------------------------|


-08------08----05----12----08--------07----03----12----07----07----03----12----07--------08----05---|
----------------------------------------------------------------------------------------------------|
----------------------------------------------------------------------------------------------------|
----------------------------------------------------------------------------------------------------|


-12----08----08----05----12----08--------12----03----12----12----07----03----12----12--------08---|
-----------------------------------------12--------------------------------------------------07---|
--------------------------------------------------------------------------------------------------|
--------------------------------------------------------------------------------------------------|


-05------12----02----08----05----12----02--------------03----12----03----07----03----12----03-------|
-------------------------------------------------12-------------------------------------------------|
-------------------------------------------------12-------------------------------------------------|
----------------------------------------------------------------------------------------------------|


-------05----12----05----08----05----12----05--------07----12----03----07----12----03----07----12---|
-10-------------------------------------------------------------------------------------------------|
----------------------------------------------------------------------------------------------------|
-10-------------------------------------------------------------------------------------------------|


-----08------12----05----08----12----05----08----03--------12----03----07----12----03----07----12---|
----------------------------------------------------------------------------------------------------|
----------------------------------------------------------------------------------------------------|
-------------------------------------------------04-------------------------------------------------|


-03--------12----05----12----12----05----12----12----05--------12----12----03----12----07----12---|
---------------------------------------------------------------12---------------------------------|
--------------------------------------------------------------------------------------------------|
--------------------------------------------------------------------------------------------------|


-03----12----------08----12----05----02----08----12----05----03--------------03----07----03----12---|
-------------------07--------------------------------------------------05---------------------------|
----------------------------------------------------------------------------------------------------|
-------------------------------------------------------------04--------05---------------------------|


-03----07----03--------05----05----12----------12----05----12--------|
-----------------------05--------------------------------------------|
---------------------------------------------------------------------|
---------------------------------------------------------------------|


Login or Register to remove this ad.