Cerebrawl (Plants vs Zombies) Ukulele Tab

Submitted: Jan 10, 2018 by ark626

3
Average: 3 (2 votes)
Download | Listen
Game: Plants vs Zombies
Composer(s): Laura Shigihara
Style: Transcription

AutoScroll: Slow | Medium | Fast
                                       Cerebrawl
                                   Plants vs Zombies
                              Composed by Laura Shigihara
                            Tabbed by the Ark626 09.01.2018

|----12--------03------------------03------------06--------12----03---------------------------------|
|--------------------------------------------------------------------------------------------05-----|
|------------------------04----------------------05--------------------04--------------------05-----|
|------------------------04--------------------------------------------04---------------------------|


-----------------12----02----11--------12----12----02----03----08--------------------07--------06---|
-----------04---------------------------------------------------------------------------------------|
-----------04---------------------------------------------------------------------------------------|
----------------------------------------------------------------------------------------------------|


---08----------05----03----11--------12--------02----03----08--------------------07--------06----08-|
---------04-----------------------------------------------------------------------------------------|
---------04-----------------------------------------------------------------------------------------|
----------------------------------------------------------------------------------------------------|


---------05----03----11--------12----07----03----00----------02----03--------------06----03----12---|
---04--------------------------------------------------------------------00-------------------------|
---04--------------------------------------------------04--------------------------05---------------|
-------------------------------------------------------04-------------------------------------------|


---03----------02----07----02--------------03--------03----------02----02--------------12----12---|
-------------------------------------05--------------------04----------------04--------------12---|
---------04--------------------------05--------------------04----------------04-------------------|
---------04------------------------------------------------------02-------------------------------|


-02----------08----03--------03--------07----02----06----08----------07----03----11--------12----07-|
-------05------------------------------------------------------04-----------------------------------|
---------------------------------------------------------04----04-----------------------------------|
-------05------------------------------------------------------------07-----------------------------|


-----02----------08----03--------03--------07----02----06----08----------07----03----11--------12---|
-----------05------------------------------------------------------04-------------------------------|
-------------------------------------------------------------04----04-------------------------------|
-----------05------------------------------------------------------------07-------------------------|


-----00--03------00------------------03----------------06------------12--------------------------02-|
---------------------------------00----------00------------------01--------------------------00-----|
-----------------------04------------------------------05--------------------05----04---------------|
-----------------------04----------------------------------------------------05----04---------------|


-----------------------------03----------------12------02----------------12----12--00--02-----------|
-----00--------05--------01--------01----04--------00----------04------------------------------05---|
---------------05------------------------04--------------------04-----------------------------------|
-----------------------------------------------------------------------------------------------05---|


-08------------03--------------07------------06------08----------05------03------11--------12-------|
-----------01--------01------------------00----------------04---------------------------------------|
-----------------------------------------------------04----04---------------------------------------|
---------------------------------------------------------------------01-----------------------------|


---00--02------------08------------03--------------07------------06------08----------05------03-----|
---------------05--------------01--------01------------------00----------------04-------------------|
-------------------------------------------------------------------------04----04-------------------|
---------------05------------------------------------------------------------------------01---------|


-11--------12----03----06----07----------------07----------------02----03----12----07---------------|
----------------------------------------------------------------------------------------------------|
----------------------------------------------------------------------------------------------------|
----------------------------------------------------------------------------------------------------|


---07----------------12----03----06----07----------------07----------------02----03----12----07-----|
----------------------------------------------------------------------------------------------------|
----------------------------------------------------------------------------------------------------|
----------------------------------------------------------------------------------------------------|


-----------07------------------12----07----------07----02----07----------07--------04----12----10---|
----------------------------------------------------------------------------------------------------|
----------------------------------------------------------------------------------------------------|
----------------------------------------------------------------------------------------------------|


---12----05--------12------------05----03----02----08----07----03----12----07--------06----03-------|
-------------------------------------------------------------------------------------------------11-|
-------------------------------------------------------------------------------------06----------11-|
-------------------------------------------------------------------------------------------04-------|


---02----07----11----08----07--------12----07----------07----02----07----------07--------04----12---|
---------07----10----08----07-----------------------------------------------------------------------|
----------------------------------------------------------------------------------------------------|
---02-----------------------------------------------------------------------------------------------|


---10----12----05--------12------------13----11----10----03----02----11----07----02--------07----02-|
----------------------------------------------------------------------------------------------------|
---------------------------------------09----07----06----------------07-----------------------------|
----------------------------------------------------------------------------------------------------|


---------02----07--------02--13--11--10--------07----02----------02----07----------------|
---11------------------------------------------------------11----------------------------|
---11------------------------------------------------------11----------------------------|
-----------------------------------------------------------------------------------------|


Login or Register to remove this ad.