Ads

Cerebrawl (Plants vs Zombies) Guitar Tab

Submitted: Apr 27, 2010 by TrangOul (Last updated: Apr 29, 2010)

5
Average: 5 (9 votes)
Download | Listen
Game: Plants vs Zombies
Composer(s): Laura Shigihara
Style: Arrangement, Artificial harmonics, Fingerstyle

AutoScroll: Slow | Medium | Fast
'Cerebrawl'
from 'Plants vs. Zombies'
originally composed by Laura Shigihara
arranged by Marcus Kasperski

Standard Tuning | Moderato

     Q    Q    Q    Q       Q    E  E  H           H        E  E  E  E     E  E  E  E  H         
E||----------------------|----------------------|--5--------4--5--7--4--|--5-----------1--------|
B||-------1----0----1----|--4-------1--0--------|-----------------------|--------0--1-----------|
G||--2-------------------|-------2--------------|-----------------------|-----2-----------------|
D||----------------------|----------------------|-----------------------|-----------------------|
A||--0-------------------|----------------------|-----------------------|--0--------------------|
E||------------0---------|--1----------0--------|--1--------0-----------|--------------1--------|


  Q    E  E  E  E  E  E     Q    E  E  H           Q    E  E  E  E  E  E   
--0-------1--0-----------|-------------1--------|--0-------1--0-----------|
-------4--------3--------|-------0--1-----------|-------4--------3--------|
-------------------5-----|--2-------------------|-------------------5-----|
----------------------6--|----------------------|----------------------6--|
-------------------------|--0-------------------|-------------------------|
--0----------4-----------|-------------1--------|--0----------4-----------|


  E  E  E  E  E  E  E  E     E  E  E  E  E  E  E  E     E  Q    E  E  E  E  E   
--------------------------|--------------------------|--5----------4--5--7--4--|
--------1-----0-----1-----|--4--------1--0-----------|-------------------------|
--2-----------------------|--------2-----------------|-------------------------|
-----2--------------------|--------------------2-----|-------------------------|
--0--------0-----2--------|-----3-----3-----2-----2--|-----3----3--------------|
--------------0--------0--|--1-----------0-----------|--1----------0--7-----0--|


  E  E  E  E  E  Q    E     E  E  E  E  E  E  E  E     E  E  E  E  E  Q    E   
--5-----------1----------|--0--------1--0-----------|--------------1----------|
--------0--1-------------|--------4--------3--1-----|--------0--1-------------|
-----2-------------------|-----------------------1--|--2----------------------|
-----2-------------------|-----------------2--------|-----2-------------------|
--0--------0-----3----3--|-----2--------------------|--0--------0-----3----3--|
--------------1----------|--0--------0--4--------4--|--------------1----------|


  E  E  E  E  E  E  E  E     E  S S S S E  E  S S S S E     E  S S S S E  E  S S E  E   
--0--------1--0-----------|------------------------------|-----------------------------|
--------4--------3--1-----|---------1------0------1------|--4----------1--0------------|
-----------------------1--|--2---------------------------|---------2-------------------|
-----------------2--------|------------------------------|-----------------------------|
-----2--------------------|--0----0-----0----------------|-----------------------2-----|
--0--------0--4--------4--|----------------0----0-----0--|--1----1-----1--0----0----0--|


  E  S S E  E  E  S S S S E     E  S S S S E  E  S S E  E     E  S S S S E  E  S S S S E   
--5------------4--5---7---4--|--5-------------1------------|--0----------1--0-------------|
-----------------------------|---------0---1---------------|---------4---------3----------|
-----------------------------|-----2-----------------------|-----------------------5------|
-----------------------------|-----------------------------|---------------------------6--|
---------3-------------------|--0----0-----0---------3-----|------------------------------|
--1----1----1--0----0-----0--|----------------1----1----1--|--0----0-----0--4----4-----4--|


                                                                                 AH      
  E  S S S S E  E  S S E  E     E  S S S S E  E  S S S S E     E  E  E  E  E     Q.      
----------------1------------|--0----------1--0-------------|-----------0-----<>12------|
---------0---1---------------|---------4---------3----------|-----1--4------------------|
--2--------------------------|-----------------------5------|--2------------------------|
-----------------------------|---------------------------6--|--------1--2---------------|
--0----0-----0---------3-----|------------------------------|--0--3---------------------|
----------------1----1----1--|--0----0-----0--4----4-----4--|---------------------------|


                    AH                          AH                          AH      
  E  E  E  E  E     Q.        E  E  E  E  E     Q.        E  E  E  E  E     Q.      
---------------------------|-----------0-----<>12------|---------------------------|
--0--1---------------------|-----1--4------------------|--0--1---------------------|
--------2------------------|--2------------------------|--------2------------------|
-----------2-----<>14------|--------1--2---------------|-----------2-----<>14------|
--2--3--0------------------|--0--3---------------------|--2--3--0------------------|
-----------0---------------|---------------------------|-----------0---------------|


    E  E  E  E  E  E  E  E     E  E  E  E  Q    Q       E  E  E  E  E  E  E  E   
|------0-----------0--------|-----5--3--5------------|-----------1--0--------0--|
|---------------0-----------|--2-----------3---------|--3--1--0--------1--------|
|*--2-----------------------|-------------------2----|--------------------2-----|
|*-----2-----2-----2-----2--|--------------0---------|--0-----------2-----------|
|---0-----------2-----------|--4---------------------|--------------------------|
|---------------------------|------------------------|--------------------------|


  E  E  E  E  E  E  E  E     E  E  E  E  E  E  E  E     E  E  E  E  Q    Q     
-----8--7--5--7--4--------|-----0-----------0--------|-----5--3--5------------|
--4-----------------6--5--|--------------0-----------|--2-----------3---------|
--------------------------|--2-----------------------|-----2--0--2-------2----|
--------------------------|-----2-----2-----2-----2--|--------------0---------|
--------6-----7--5--------|--0-----------2-----------|--4----------------0----|
--2--7-----7--------8--7--|--------------------------|------------------------|


                          1____________________________ 2_______________________
  E  E  E  E  E  E  E  E  |  E  E  E  E  Q    S S S S   |  E  E  E  E  H          
-----------1--0--------0--|-----0--4--0--5----0--------||-----0--4--0--5--------||
--3--1--0--------1--------|---------------------3-1-0--||-----------------------||
--------------------2-----|--2-----------2------------*||--2-----------2--------||
--0--------3--2--------2--|--------2------------------*||--------2--------------||
-----3--2--------3--0-----|--0-------------------------||--0-----------0--------||
--------------------------|----------------------------||-----------------------||




Duration Legend
---------------
H - half
Q - quarter
E - 8th
S - 16th
. - note dotted


Tablature Legend
----------------
L - tied note
AH - artificial harmonic
Login or Register to remove this ad.

7 comments on Cerebrawl

I'm a huge fan of your PvZ

5

I'm a huge fan of your PvZ arrangements ^-^

Delicious

5

Delicious

Scrumptious

5

Scrumptious

Amazing

5

Amazing

Perfect tab. Full of Bass

5

Perfect tab. Full of Bass notes created a very interesting rythm. Also fun to play for me. as slow guitarist I am only able to play the bar n°29 like that using a bar chord on case VII :

E||-----8---7--------7------------0--|
B||--4----------10-------9-----------|
G||---------8------------7---10------|
D||-----------------------------------|
A||------- ------------7---------------|
E||--2--7--------7------------8---7--|

(maybe it can be usefull for others)

5/5 & thanks ^^

Yeah, that's a nice

Yeah, that's a nice alternative way to play that part. By the way, if you want to display tabs correctly in comments, use the "pre"-tags around them:
(pre)Put your tab here(/pre) using < and > instead of ( and )

oh these tabs are very

oh these tags are very usefull, I'll remind its. Thank you for info