Ads

Kimi no Koe (The Place Promised In Our Early Days) Guitar Tab

Submitted: May 23, 2014 by Basisti94

5
Average: 5 (2 votes)
Download | Listen
Game: The Place Promised In Our Early Days
Composer(s): Tenmon
Style: Arrangement, Fingerstyle

This song is also called Your Voice

AutoScroll: Slow | Medium | Fast
                  Kimi no Koe
                                
The Place Promised in Our Early Days
Kawashima Ai
Guitar arrangement by Basisti94 (Miro Laaksonen)
23.5.2014


Tempo ~ 77
     ^         ^            ^                      ^         ^          
     Q    Q    Q    Q       Q    Q    Q    Q       Q    Q    Q    Q     
E||----------------------|--0----0----0----0----|--0----0----0----0----|
B||--1----1----3----3----|--1----1----1----1----|--1----1----0----0----|
G||--2----2----0----0----|--0----0----0----0----|--2----2----1----1----|
D||--2----2----0----0----|----------------------|----------------------|
A||--0---------2---------|--3-------------------|----------------------|
E||----------------------|----------------------|--1---------4---------|


  ^                      ^         ^            ^                    
  Q    Q    Q    Q       Q    Q    Q    Q       Q    Q    Q    Q     
----------------------|----------------------|--0-------------------|
--1----1----1----0----|--1----1----3----3----|--1----1--------------|
--2----2----2---------|--2----2----0----0----|--0----0----0---------|
--2----2----2---------|--2----2----0----0----|-------2---------2----|
--0-------------------|--0---------2---------|--3---------3----3----|
-----------------3----|----------------------|-------3----0---------|


  ^                      ^        ^            ^                        
  Q    Q    Q    Q       H        Q.     E     Q    E  S  S Q    E  S S  
----------------------|-----------0---------|--0------------0-------0-5-|
----------------------|-----------0------3--|--1-------1h-3-1----1------|
--2----2----2----2----|--1--------1---------|--2----2-------2----2------|
--2----2----2----2----|--2--------2---------|--2----2-------------------|
--2----2----2----2----|--2------------------|--0------------------------|
--0-------------------|--0------------------|---------------1-----------|


  ^                          ^                          
  E.  S E  E  Q    E  S S    S S E  E  S S Q    E  S S  
--3---3-------0---------0-|--------------0-------------|
--3--------3--1----1--3---|--3-3-3-----3---1---------1-|
--0-----0-----0----0------|--3------3------2----2--2---|
--0-----0-----------------|--3------3------3----3------|
--------------3-----------|--1-------------------------|
--3-----------------------|----------------1-----------|


  ^                                                       
  Q    E  S S Q    E  S  S    S S E  E  S  S E  E  E  E   
--------------0------------|--0-0------------0--------5--|
--3-------1-3---------1h-3-|------------1h-3-------------|
--2----2------2----1-------|---------2-------------2-----|
--0-----------2----2-------|------2-----2----------------|
---------------------------|--0-----------------3--------|
--------------0------------|-----------------1-----------|


  E  E  Q    E  E  E  S S    E  E  E  E  Q    E  E     E  E  E  E  Q.     S  S  
--7-----3----0--------0-0-|--1--------1--0----0-----|---------------------0h-3-|
-------------------1------|--------3-------------3--|--1-----------------------|
----------------0-----0---|-----2--------2----1-----|--2-----------------------|
-----0--------------------|--0-----------2----2-----|-----2--0--2--------------|
-------------3------------|-------------------------|--0-----------3-----------|
--3-----------------------|--------------0----------|--------------------------|


  E  E  E  S S E  S S E  E     E  E  E  E  E  E  E  S  S  
--5--------5-5-7----7----3--|--0--------------------0h-3-|
----------------------------|----------------------------|
--------2-------------0-----|--------0--2--------0-------|
------------------0---------|-----2-----------2----------|
-----3----------------------|--3-----------3-------------|
--1------------3------------|----------------------------|


  E  E  E  S S E  S S E  E     E  E  E  E  E  E  E  S  S  
--5--------5-5-7----0-------|----------------------------|
----------------------------|--1--------------------1h-3-|
--------2----------------7--|--------2-----------0-------|
----------------------6-----|-----2-----2-----2----------|
-----3------------7---------|--0-------------------------|
--1------------0------------|--------------3-------------|


  E  E  E  S S E  S S E  E     E  S S E  E  E  E  E  S S  
-------------------------5--|--5----3----0-------------0-|
--3--------3-3-3----3-------|---------------1-----1--3---|
----------------------------|------------------0---------|
--------4---------0---0-----|---------2-----1------------|
-----5----------------------|-----3----------------------|
--2------------1------------|--0-------------------------|


  E  E  E  S S Q    E  S  S    E  E  E  E  E  E  E  S  S  
--1----------0-1-------1h-3-|--5--------------------7S-5-|
-----------3----------------|----------------------------|
-----2---------2----0-------|-----------2--4-----2-------|
--0-----2------3----0-------|--------2-------------------|
----------------------------|-----2-----------2----------|
---------------1----3-------|--0-------------------------|


  E  E  E  E  E  E  E  E     E  E  E  E  E  E  E  E   
--4-----------------------|--------------------------|
--------------------0-----|--------------0-----------|
-----------1--1--2--------|--2-----2-----------0-----|
--------2-----------------|-----------------0-----0--|
-----2-----------------2--|-----3-----3--------------|
--0-----------0-----------|--1-----------3-----------|


  E   E   E  E  E  E   E  E     E  E  E  E  E   E   E   S   S  
--0----------0--------10-----|--8-----------------------------|
----------------8------------|-------------------------10h-12-|
-------------------0------0--|-----------0---------10---------|
---------10------------------|--------7--------10-------------|
-----10----------------------|-----7--------8-----------------|
--8-------------7------------|--5-----------------------------|


  E   S S E  E  E  E  E   E     E  E  E  E  E  E  E  E   
--8-----8----------------10--|--8--8--8-----1-----------|
-------------8--6-----6------|--------5--8--------------|
----------9--------7---------|-----5--------------------|
----------------0------------|--------------------3-----|
-----10----------------------|-----------------3-----3--|
--8--------------------------|--0-----------1-----------|


  E  E  E  E  E  S S E  E     E   E   E  E  E  E   E  E   
--3--------3--3----5----7--|--0----------0--------10-----|
---------------------------|----------------8------------|
--------0------------0-----|-------------------0------0--|
-----0-----------0---------|---------10------------------|
---------------------------|-----10----------------------|
--3-----------3------------|--8-------------7------------|


  E  E  E  E  E   E   E   S   S    E   S S  E  E  E  E  E   E   
--8-----------------------------|--8-----8-----------------10--|
-------------------------10h-12-|--------------8--6-----6------|
-----------0---------10---------|--------------------7---------|
--------7--------10-------------|----------10-----0------------|
-----7--------8-----------------|-----10-----------------------|
--5-----------------------------|--8---------------------------|


  E  E  E  E  E  E  E  S S    E  E  E  E  E  S S E  E     E  E  Q    Q    Q     
--8--8--8-----1----------0-|--1-----------1----0-------|-----------------------|
--------5--8-----------3---|------------------------3--|--1--------------------|
-----5---------------------|--------0------------0-----|--------2----0---------|
--------------------3------|-----0-----0-----0------0--|--------3----2----3----|
-----------------3---------|---------------------------|-----3------------5----|
--0-----------1------------|--3-----------3------------|--1--------------------|


           ^            ^                                                   
  H        H            H.           E  S  S    S S E  E  S  S E  E  E  E   
-----------0--------|--12------------L-------|--0-0------------0--------5--|
-----------1--------|--13------------L--1h-3-|------------1h-3-------------|
-----------0--------|--12------------L-------|---------2-------------2-----|
--2--------2--------|----------------L-------|---------2-------------------|
--3-----------------|------------------------|--0-----------------0--------|
--------------------|------------------------|------0----------1-----------|


  E  S S E  S S E  E  E  S S    S S E  E  S  S E  E  E  S S  
--3----3----3---0----------0-|------------------------------|
--------------3----------3---|--3-3-3-----3h-5-1----------1-|
---------0------------0------|---------3----------------2---|
-----0-------------2---------|------3----------------3------|
----------------3------------|--1-----------------3---------|
--3--------------------------|-----------------1------------|


  E  E  E  S  S Q    E  S  S    S S E  E  S  S E  E  E  E   
----------------0------------|--0-0-0----------0--------5--|
--3--------1h-3---------1h-3-|------------1h-3-------------|
-----2----------2----1-------|---------2-------------2-----|
--0-----0-------2----2-------|------2-----2----------------|
-----------------------------|--0-----------------3--------|
----------------0----0-------|-----------------1-----------|


  E  E  Q    E  E  E  S S    S S E  E  E  Q    E  E   
--7-----3----0--------0-0-|--1-1-1-----1--0----------|
-------------------1------|---------3-------------3--|
----------------0-----0---|------2-----2--2----1-----|
-----0--------------------|--0------------2----2-----|
-------------3------------|--------------------------|
--3-----------------------|---------------0----0-----|


  E  E  E  E  Q.     S  S    S S E  E  S S E  S S E  E   
---------------------0h-3-|--5-5-5-----5-5-7----7----3--|
--1-----------------------|-----------------------------|
--2-----------------------|---------2-------------0-----|
-----2--0--2--------------|---------3---------0---------|
--0-----------3-----------|-----------------------------|
--------------------------|--1-------------3------------|


  E  E  E  E  E  E  E  S  S    E  E  E  S S E  S S E  E   
--0--------------------0h-3-|--5--------5-5-7----0-------|
--------------------1-------|----------------------------|
--------0--2--0--------0----|--------2----------------7--|
-----2-----------2----------|----------------------6-----|
--3-----------3-------------|-----3------------7---------|
----------------------------|--1------------0------------|


  E  E  E  E  E  E  E  S  S    E  E  E  S S E  S S E  E   
----------------------------|-------------------------5--|
--1--------------------1h-3-|--3--------3-3-3----3-------|
--------2-----2-----2-------|----------------------------|
-----2-----2-----2----------|--------4---------0---0-----|
--0-------------------------|-----5----------------------|
--------------3-------------|--2------------1------------|


  E  S S E  E  E  E  E  S S    E  E  E  S S Q    E  S  S  
--5----3----0-------------0-|--1----------0-1-------1h-3-|
---------------1--------3---|-----------3----------------|
------------------0---------|-----2---------2----0-------|
---------2-----1-----1------|--0-----2------3----0-------|
-----3----------------------|----------------------------|
--0-------------------------|---------------1----3-------|


  E  E  E  E  E  E  E  S  S    E  E  E  E  E  E  E  E   
--5--------------------7S-5-|--4-----------------------|
----------------------------|--------------------0-----|
-----------2--4-----2-------|-----------1--1--2--------|
--------2-------------------|--------2-----------------|
-----2-----------2----------|-----2-----------------2--|
--0-------------------------|--0-----------0-----------|


  E  E  E  E  E  E  E  E     E   E   E  E  E  E   E  E   
--------------------------|--0----------0--------10-----|
--------------0-----------|----------------8------------|
--2-----2-----0-----0-----|-------------------0------0--|
--------3--------0-----0--|---------10------------------|
-----3-----3--------------|-----10----------------------|
--1-----------3-----------|--8-------------7------------|


  E  E  E  E  E   E   E   S   S    E   S S E  E  E  E  E   E   
--8-----------------------------|--8-----8----------------10--|
-------------------------10h-12-|-------------8--6-----6------|
-----------0---------10---------|----------9--------7---------|
--------7--------10-------------|----------------0------------|
-----7--------8-----------------|-----10----------------------|
--5-----------------------------|--8--------------------------|


  E  E  E  E  E  E  E  S S    E  E  E  E  E  S S E  E   
--8--8--8-----1--------1-3-|--3--------3--3----5----7--|
--------5--8---------------|---------------------------|
-----5---------------------|--------0------------0-----|
--------------------3------|-----0-----------0---------|
-----------------3---------|---------------------------|
--0-----------1------------|--3-----------3------------|


  E   E   E  E  E  E   E  E     E  E  E  E  E   E   E   S   S  
--0----------0--------10-----|--8-----------------------------|
----------------8------------|-------------------------10h-12-|
-------------------0------0--|-----------0---------10---------|
---------10------------------|--------7--------10-------------|
-----10----------------------|-----7--------8-----------------|
--8-------------7------------|--5-----------------------------|


  E   S S  E  E  E  E  E   E     E  E  E  E  E  E  E  S S  
--8-----8-----------------10--|--8--8--8-----1----------0-|
--------------8--6-----6------|--------5--8-----------3---|
--------------------7---------|-----5---------------------|
----------10-----0------------|--------------------3------|
-----10-----------------------|-----------------3---------|
--8---------------------------|--0-----------1------------|


                                                               ^         
  E  E  E  E  E  S S E  E     E  E  Q    Q    Q       H        H         
--1-----------1----0-------|-----------------------|-----------0--------|
------------------------3--|--1--------------------|-----------1--------|
--------0------------0-----|--------2----0---------|-----------0--------|
-----0-----0-----0------0--|--------3----2----3----|--2--------2--------|
---------------------------|-----3------------5----|--3-----------------|
--3-----------3------------|--1--------------------|--------------------|


   ^                                                    
   Q.     E  E  E  E  E     E   E   E  E  E  E   E  E   
--12---------------------|--0----------0--------10-----|
--13---------------------|----------------8------------|
--12------0--0--0--0--0--|-------------------0------0--|
----------2--2--2--2--2--|---------10------------------|
----------3--3--3--3--3--|-----10----------------------|
-------------------------|--8-------------7------------|


  E  E  E  E  E   E   E   S   S    E   E  E  E  E  E  E   E   
--8-----------------------------|--8---8--8--------------10--|
-------------------------10h-12-|------------8--6-----6------|
-----------0---------10---------|---------9--------7---------|
--------7--------10-------------|---------------0------------|
-----7--------8-----------------|-----10---------------------|
--5-----------------------------|--8-------------------------|


  E  S S E  E  E  E  E  E     E  E  E  E  E  S S E  E   
--8----8-------1-----------|--3--------3--3----5----7--|
---------5--8--------------|---------------------------|
-----5---------------------|--------0------------0-----|
---------------------3-----|-----0-----0-----0---------|
------------------3-----3--|---------------------------|
--0------------1-----------|--3-----------3------------|


  E   E   E  E  E  E   E  E     E  E  E  E  E   E   E   S   S  
--0----------0--------10-----|--8-----------------------------|
----------------8------------|-------------------------10h-12-|
-------------------0------0--|-----------0---------10---------|
---------10------------------|--------7--------10-------------|
-----10----------------------|-----7--------8-----------------|
--8-------------7------------|--5-----------------------------|


  E   S S  E  E  E  E  E   E     E  E  E  E  E  E  E  S S  
--8-----8-----------------10--|--8--8--8-----1----------0-|
--------------8--6-----6------|--------5--8-----------3---|
--------------------7---------|-----5---------------------|
----------10-----0------------|--------------------3------|
-----10-----------------------|-----------------3---------|
--8---------------------------|--0-----------1------------|


                                                               ^         
  E  E  E  E  E  S S E  E     E  E  Q    Q    Q       H        H         
--1-----------1----0-------|-----------------------|-----------0--------|
------------------------3--|--1--------------------|-----------1--------|
--------0------------0-----|--------2----0---------|-----------0--------|
-----0-----0-----0------0--|--------3----2----3----|--2--------2--------|
---------------------------|-----3------------5----|--3-----------------|
--3-----------3------------|--1--------------------|--------------------|


   ^                                                                   
   W                    Q.     E  Q     Q       Q    E  E  Q.     S S  
--12----------------|---0------0-------10----|--8-----------------5-7-|
--13----------------|-------------8----------|------------------------|
--12----------------|-------------0----------|----------0-------------|
--------------------|--10---------0----------|--7----7----------------|
--------------------|--10--------------------|-------------8----------|
--------------------|---8---------7----------|------------------------|


                            ^                                             
  E.  E.  E  Q    E   E     E  E  E  E  H           Q.     E  E.  E.  E   
--8---8--------------10--|--8--8--8-----1--------|--3------3--3---5---7--|
--8-------8--6----6------|--5--------8-----------|-----------------------|
--9----------------------|--5-----------2--------|--0--------------------|
-------------0-----------|--------------3--------|--0--------------------|
-------------------------|-----------------------|-----------------------|
--8----------------------|--0-----------1--------|--3--------------------|


  E   E   E  E  E  E   E  E     Q    E  E  Q.     S S  
--0----------0--------10-----|--8-----------------5-7-|
----------------8------------|------------------------|
-------------------0------0--|----------0-------------|
---------10------------------|--7----7----------------|
-----10----------------------|-------------8----------|
--8-------------7------------|------------------------|


                            ^                                              
  E.  E.  E  Q    E   E     E  E  E  E  Q.     S S    H        E.  E.  E   
--8---8--------------10--|--8--8--8-----1--------0-|--1--------3---5---7--|
--8-------8--6----6------|--5--------8---------3---|-------------------0--|
--9----------------------|--5-----------2----------|--0------------0------|
-------------0-----------|--------------3----------|--0--------0----------|
-------------------------|-------------------------|----------------------|
--8----------------------|--0-----------1----------|--3-------------------|


   ^                                                                 
   H         Q    Q       H        H           H        E  E  E  E   
---8-------------------|--------------------|--------------------0--|
-------------8----6----|--5--------1--------|--1--------L-----1-----|
--10---------9----5----|--5--------0--------|--0--------L--0--------|
--10--------10----7----|--5--------2--------|--2--------L-----------|
---8---------7----5----|--3-----------------|--3--------L-----------|
-----------------------|-----------3--------|-----------------------|


  H        E  E     Q.     E  E  E     H        H           W                 
--3--------1-----|--0------------0--|--5--------7--------|--8----------------|
--------------3--|--1---------1-----|--6-----------------|--8----------------|
--0--------------|--0------0--------|--5--------7--------|--9----------------|
--2--------------|------------------|--3--------5--------|-------------------|
--3--------------|--3---------------|--------------------|-------------------|
-----------1-----|------------------|--------------------|--8----------------|


-------------------||
-------------------||
-------------------||
-------------------||
-------------------||
-------------------||




Duration Legend
---------------
W - whole
H - half
Q - quarter
E - 8th
S - 16th
T - 32nd
X - 64th
. - note dotted
|-n-|  - n-tuplets


Tablature Legend
----------------
L - tied note
x - dead note
g - grace note
(n) - ghost note
> - accentuded note
NH - natural harmonic
AH - artificial harmonic
TH - tapped harmonic
SH - semi harmonic
PH - pitch harmonic
h - hammer on
p - pull off
b - bend
S - shift slide
s - legato slide
/ -  slide into from below or out of upwards
\ -  slide into from above or out of downwards
~ - vibrato
W - wide vibrato
tr - trill
TP - tremolo picking
T - tapping
S - slap
P - pop
< - fade in
^ - brush up
v - brush down
Login or Register to remove this ad.