Ads

Suite (Pitfall II: Lost Caverns) Guitar Tab

Submitted: Aug 06, 2009 by auriplane (Last updated: Feb 06, 2010)

5
Average: 5 (3 votes)
Download | Listen
Game: Pitfall II: Lost Caverns
Composer(s): David Crane
Style: 2 or more instruments, Arrangement, Fingerstyle

AutoScroll: Slow | Medium | Fast
                            Pitfall II - The Lost Caverns GUITAR DUET
                                     Composed by David Crane

                    Arranged for two guitars by Auriplane ([email protected])




                                           FIRST GUITAR



     Q    E.  S E  E  Q       Q    E.  S Q    E.  S    H        Q    Q       W
e||----------------3--L----|-------------0----------|--1--------0---------|-------------------|
B||--1----1-----1----------|--1----1---3------1---1-|--1--------1----1----|--3----------------|
G||--0--------0----0--L----|--0----------0----------|--2--------2----2----|--0----------------|
D||-------2-----2----------|-------2----------2-----|---------------------|--3----------------|
A||------------------------|------------------------|---------------------|-------------------|
E||------------------------|------------------------|---------------------|-------------------|


  Q    E.  S E  E  Q       Q    E.  S Q    E.  S    Q    E.  S Q    Q       H        E  E  E  E
----------------3--L----|-------------0----------|--1----0-----3---------|--0--------L-----------|
--1----1-----1----------|--1----1---3------1---1-|--1--------1-0----0----|--1--------L-----------|
--0--------0----0--L----|--0----------0----------|--2----------0----0----|--0--------L--------0--|
-------2-----2----------|-------2----------2-----|------------------0----|--2--------L-----2-----|
------------------------|------------------------|-----------------------|--------------3--------|
------------------------|------------------------|-----------------------|-----------------------|


  E  S  S  S  S  E  E  E  E  E     E  S  S  S  S  E  E  E  E  E     H        Q.     E
--------------------------------|--------------------------------|------------------0--|
-----2p-1h-2p-1h-2--1-----------|-----2p-1h-2p-1h-2--1-----------|--1--------3------1--|
--1--------------L--0--------0--|--3--------------L--0--------0--|--2--------0------0--|
--------------------------2-----|--------------------------2-----|---------------------|
-----------------------3--------|-----------------------3--------|---------------------|
--------------------------------|--------------------------------|---------------------|


  W                     W                   W                   E  E  E  E  E  E  E  E
--0----------------||---0----------------|-------------------|-----1--L--1-----2--L--2--|
--1----------------||---1----------------|--1----------------|--1-----------1-----------|
--0----------------||*--0----------------|--0----------------|--2-----------2-----------|
-------------------||*-------------------|--2----------------|--------------------------|
-------------------||--------------------|-------------------|--------------------------|
-------------------||--------------------|-------------------|--------------------------|


  E  E  E  E  H           W                   W                   H        H
-----3-----------------|--0----------------|-------------------|--1-----------------|
--------3--0-----------|--1----------------|--1----------------|--1--------3--------|
--------------0--------|--0----------------|--0----------------|--2--------4--------|
-----------------------|-------------------|--2----------------|-----------5--------|
-----------------------|-------------------|-------------------|--------------------|
-----------------------|-------------------|-------------------|--------------------|


  W                     Q    E  E  E  E  Q       Q    E  E  Q    E  E     H        Q    Q
--0-----------------||----------------3--L----|------------------------|---------------------|
--1-----------------||--1----1-----1----------|--1----1--3--4----1--1--|--6--------4---------|
--0----------------*||----------0-------------|------------------------|--5--------5----5----|
--2----------------*||------------------------|------------------------|----------------6----|
--------------------||------------------------|------------------------|---------------------|
--------------------||------------------------|------------------------|---------------------|


  W                   Q    E  E  E  E  Q       Q    E  E  Q    E  E     Q    E  E  Q    Q
-------------------|----------------3--L----|------------------------|--1----------3---------|
--3----------------|--1----1-----1----------|--1----1--3--4----1-----|--1----4--1------------|
--3----------------|----------0-------------|---------------------0--|-------------3----3----|
-------------------|------------------------|------------------------|------------------0----|
-------------------|------------------------|------------------------|-----------------------|
-------------------|------------------------|------------------------|-----------------------|


  W                   W                   W                   E  E  E  E  E  E  E  E
-------------------|--0----------------|-------------------|-----1--L--1-----2--L--2--|
--4----------------|--1----------------|--1----------------|--1-----------1-----------|
--0----------------|--0----------------|--0----------------|--2-----------2-----------|
-------------------|-------------------|--2----------------|--------------------------|
-------------------|-------------------|-------------------|--------------------------|
-------------------|-------------------|-------------------|--------------------------|


  E  E  E  E  H           W                   W                   H        H
-----3-----------------|--0----------------|-------------------|--1-----------------|
--------3--0-----------|--1----------------|--1----------------|--1--------3--------|
--------------0--------|--0----------------|--0----------------|--2--------4--------|
-----------------------|-------------------|--2----------------|-----------5--------|
-----------------------|-------------------|-------------------|--------------------|
-----------------------|-------------------|-------------------|--------------------|


  W                   Q    E.  S E  E  Q       Q    E.  S Q    E.  S    H        Q    Q
--0----------------|----------------3--L----|-------------0----------|--1--------0---------|
--1----------------|--1----1-----1----------|--1----1---3------1---1-|--1--------1----1----|
--0----------------|--0--------0----0--L----|--0----------0----------|--2--------2----2----|
--2----------------|-------2-----2----------|-------2----------2-----|---------------------|
-------------------|------------------------|------------------------|---------------------|
-------------------|------------------------|------------------------|---------------------|


  W                   Q    E.  S E  E  Q       Q    E.  S Q    E.  S    Q    E.  S Q    Q
-------------------|----------------3--L----|-------------0----------|--1----0-----3---------|
--3----------------|--1----1-----1----------|--1----1---3------1---1-|--1--------1-0----0----|
--0----------------|--0--------0----0--L----|--0----------0----------|--2----------0----0----|
--3----------------|-------2-----2----------|-------2----------2-----|------------------0----|
-------------------|------------------------|------------------------|-----------------------|
-------------------|------------------------|------------------------|-----------------------|


  H        E  E  E  E     E  S  S  S  S  E  E  E  E  E     E  S  S  S  S  E  E  E  E  E
--0--------L-----------|--------------------------------|--------------------------------|
--1--------L-----------|-----2p-1h-2p-1h-2--1-----------|-----2p-1h-2p-1h-2--1-----------|
--0--------L--------0--|--1--------------L--0--------0--|--3--------------L--0--------0--|
--2--------L-----2-----|--------------------------2-----|--------------------------2-----|
--------------3--------|-----------------------3--------|-----------------------3--------|
-----------------------|--------------------------------|--------------------------------|


  H        Q.     E     W
------------------0--|--0----------------||
--1--------3------1--|--1----------------||
--2--------0------0--|--0----------------||
---------------------|-------------------||
---------------------|-------------------||
---------------------|-------------------||





                                          SECOND GUITAR




     Q    Q    Q    Q       Q    Q    Q    Q       E  S  S  Q    E  S  S  Q
e||----------------------|----------------------|------------------------------|
B||----------------------|----------------------|------------------------------|
G||----------------------|----------------------|------------------------------|
D||----------------------|----------------------|------------------------------|
A||--3---------3---------|--3---------3---------|-----0h-2h-3-------0h-2h-3----|
E||-------3---------3----|-------3---------3----|------------------------------|


  Q    E  E  H           Q    Q    Q    Q       Q    Q    Q    Q       Q    Q    Q    Q
----------------------|----------------------|----------------------|----------------------|
----------------------|----------------------|----------------------|----------------------|
----------------------|----------------------|----------------------|----------------------|
----------------------|----------------------|----------------------|----------------------|
----------0--2--------|--3---------3---------|--3---------3---------|--0---------2---------|
--3----3--------------|-------3---------3----|-------3---------3----|-------1---------3----|


  H        E  E  E  E     E  E  E  E  Q    Q       E  E  E  E  Q    Q       H        Q.     E
-----------------------|------------------------|------------------------|---------------------|
-----------------------|------------------------|------------------------|---------------------|
-----------------------|------------------------|------------------------|---------------------|
-----------------------|------------------------|------------------------|--3--------0---------|
--3--------L-----------|-------------------3----|-----------3-------3----|------------------3--|
-----------------------|--4--3--1--4--3---------|--4--3--1-----3---------|---------------------|


  W                     Q    Q    Q    Q       Q    Q    Q    Q       E  S  S  Q    E  S  S  Q
-------------------||-----------------------|----------------------|------------------------------|
-------------------||-----------------------|----------------------|------------------------------|
-------------------||*----------------------|----------------------|------------------------------|
-------------------||*----------------------|----------------------|--3-------------4-------------|
--3----------------||---3---------3---------|--3---------3---------|-----0h-2h-3-------0h-2h-3----|
-------------------||--------3---------3----|-------3---------3----|------------------------------|


  Q    E  E  H           Q    Q    Q    Q       Q    Q    Q    Q       Q    Q    Q    Q
----------------------|----------------------|----------------------|----------------------|
----------------------|----------------------|----------------------|----------------------|
----------------------|----------------------|----------------------|----------------------|
----------------------|----------------------|----------------------|----------------------|
--2-------0--2--------|--3---------3---------|--3---------3---------|--0---------2---------|
--3----3--------------|-------3---------3----|-------3---------3----|-------1---------3----|


  E  E  E  E  H             Q    Q    Q    Q       Q    Q    Q    Q
------------------------||----------------------|----------------------|
------------------------||----------------------|----------------------|
-----------------------*||--0---------0---------|--0---------0---------|
-----------------------*||-------1---------1----|-------1---------1----|
--3-----0--2--3---------||--3---------3---------|--3---------3---------|
-----3------------------||-------3---------3----|-------3---------3----|


  E  S  S  Q    E  S  S  Q       Q    E  E  H           Q    Q    Q    Q       Q    Q    Q    Q
------------------------------|----------------------|----------------------|----------------------|
------------------------------|----------------------|----------------------|----------------------|
------------------------------|-------------0--------|--0---------0---------|--0---------0---------|
------------------------------|----------------------|-------1---------1----|-------1---------1----|
------------------------------|----------0--1--------|--3---------3---------|--3---------3---------|
-----4h-6h-8-------4h-6h-8----|--3----3--------------|-------3---------3----|-------3---------3----|


  Q    Q    Q    Q       W                   Q    Q    Q    Q       Q    Q    Q    Q
----------------------|-------------------|----------------------|----------------------|
----------------------|-------------------|----------------------|----------------------|
-------1----3---------|-------------------|----------------------|----------------------|
--3--------------0----|--1----------------|----------------------|----------------------|
------------1---------|--3----------------|--3---------3---------|--3---------3---------|
--4----1---------3----|-------------------|-------3---------3----|-------3---------3----|


  E  S  S  Q    E  S  S  Q       Q    E  E  H           Q    Q    Q    Q       Q    Q    Q    Q
------------------------------|----------------------|----------------------|----------------------|
------------------------------|----------------------|----------------------|----------------------|
------------------------------|----------------------|----------------------|----------------------|
--3-------------4-------------|----------------------|----------------------|----------------------|
-----0h-2h-3-------0h-2h-3----|--2-------0--2--------|--3---------3---------|--3---------3---------|
------------------------------|--3----3--------------|-------3---------3----|-------3---------3----|


  Q    Q    Q    Q       E  E  E  E  H           Q    Q    Q    Q       Q    Q    Q    Q
----------------------|-----------------------|----------------------|----------------------|
----------------------|-----------------------|----------------------|----------------------|
----------------------|-----------------------|----------------------|----------------------|
----------------------|-----------------------|----------------------|----------------------|
--0---------2---------|--3-----0--2--3--------|--3---------3---------|--3---------3---------|
-------1---------3----|-----3-----------------|-------3---------3----|-------3---------3----|


  E  S  S  Q    E  S  S  Q       Q    E  E  H           Q    Q    Q    Q       Q    Q    Q    Q
------------------------------|----------------------|----------------------|----------------------|
------------------------------|----------------------|----------------------|----------------------|
------------------------------|----------------------|----------------------|----------------------|
------------------------------|----------------------|----------------------|----------------------|
-----0h-2h-3-------0h-2h-3----|----------0--2--------|--3---------3---------|--3---------3---------|
------------------------------|--3----3--------------|-------3---------3----|-------3---------3----|


  Q    Q    Q    Q       H        E  E  E  E     E  E  E  E  Q    Q       E  E  E  E  Q    Q
----------------------|-----------------------|------------------------|------------------------|
----------------------|-----------------------|------------------------|------------------------|
----------------------|-----------------------|------------------------|------------------------|
----------------------|-----------------------|------------------------|------------------------|
--0---------2---------|--3--------L-----------|-------------------3----|-----------3-------3----|
-------1---------3----|-----------------------|--4--3--1--4--3---------|--4--3--1-----3---------|


  H        Q.     E     W
---------------------|-------------------||
---------------------|-------------------||
---------------------|-------------------||
--3--------0---------|-------------------||
------------------3--|--3----------------||
---------------------|-------------------||



Duration Legend
---------------
W - whole
H - half
Q - quarter
E - 8th
S - 16th
. - note dotted


Tablature Legend
----------------
L - tied note
h - hammer on
p - pull off

Login or Register to remove this ad.

4 comments on Suite

This should go under Atari

This should go under Atari 2600, but I can't add a system, so I put it under Commodore 64. There was a port of it for C64 so I guess that's ok XD But I only played it on Atari.

Added an Atari category. All

Added an Atari category. All games for Atari systems can go under it.

Well done =)

5

Well done =)

Really great job with this,

5

Really great job with this, auri! a flood of nostalgia made it impossible not to smile lol

Now where is that sidstar tab for lcd dragon you promised?! >:O