Ads

Ai No Uta (Pikmin) Guitar Tab

Submitted: Apr 10, 2011 by 60NCA10

5
Average: 5 (4 votes)
Download | Listen
Game: Pikmin
Composer(s): Strawberry Flower
Style: Arrangement, Fingerstyle

Click here for a video example.

AutoScroll: Slow | Medium | Fast



                             PIKMIN
                          "Ai no Uta"
                        ("Song of Love")


              Original song by: Strawberry Flower

                  Fingerstyle Arrangement by:
                        Gonçalo Martins
                       November 2nd 2010






     H.           E  S S    E  E  E  E  E  S S E  E     E  E  E  S  S H         
E||--------------------0-|--2--------------3-2-0-----|--2-----3--2h-3-0--------|
B||------------------3---|--------3------------3--3--|--------3----------------|
G||----------------------|-----2-----2-----2------2--|-----2-----2-------------|
D||----------------------|--0-----------0------------|--0----------------------|
A||----------------------|---------------------------|----------------0--------|
E||----------------------|---------------------------|-------------------------|


  E  S S S S S S E  S S S S S S    E  S S E  S S E  E  E  E   
--2--2-2-2-2-3-5----5-5-5-5-5-7-|-----7-3-3--2-3----------0--|
---------3--------------3-------|----------------------3-----|
-----2-------2------2-------2---|---------0------------0-----|
--0--------------0--------------|-----0------0------0-----0--|
--------------------------------|----------------------------|
--------------------------------|--3-------------3-----------|


  S S E  S S E  S S E  S S E     S S E  S S S S E  E  E  E   
--2-2-2--2-2-2--2-2-2--0-0-0--|--0-0-2--0----------------0--|
------------------------------|-----------3---3-------3-----|
---------4--------------------|--------------------2-----2--|
------4------4---------4------|------0------2---0-----------|
--2-----------------4------4--|---------0-------------------|
----------------2-------------|--3--------------------------|


  E  S S S S S S E  S S S S S S    E  S S E  S S E  E  E  E   
--2--2-2-2-2-3-5----5-5-5-5-5-7-|-----7-3-3--2-3----------0--|
---------3--------------3-------|----------------------3-----|
-----2-------2------2-------2---|---------0------------0-----|
--0--------------0--------------|-----0------0------0-----0--|
--------------------------------|----------------------------|
--------------------------------|--3-------------3-----------|


  S S E  S S E  S S E  S S E     S S E  S S S S E  E  E  E   
--2-2-2--2-2-2--2-2-2--0-0-0--|--0-0-2--0-------------------|
------------------------------|-----------3---3----L--3-----|
---------4--------------------|--------------------2-----2--|
------4------4---------4------|------0------2---0-----------|
--2-----------------4------4--|---------0-------------------|
----------------2-------------|--3--------------------------|


  E  E  S S S S S S S S E  S S    S S E  E  E  E  E  E  E   
--------3-3-3-3-3-5---5-5--3-3-|----2----------------------|
-------------------------------|---------3-----3-----3-----|
--------0---------------2------|------2-----2-----2-----2--|
-----0------0-------2------2---|--0------------------------|
----------------0--------------|---------------------------|
--3----------------------------|---------------------------|


  E  E  S S S S S S S S E  S S    E  E  E  S S E  E  E  E   
--------3-3-3-3-3-5---5-5--3-3-|--2-----2--5-7-------------|
-------------------------------|--------3---------------7--|
--------0---------------2------|-----2-----2---------------|
-----0------0-------2------2---|--0------------------9-----|
----------------0--------------|------------------9-----9--|
--3----------------------------|---------------7-----------|


  E  E  E  S S E  E  E  S S    E  E  E  E  E  E  E  S S  
--3--------3-2-0--------2-2-|--3-----------0--------2-2-|
----------------------------|--------3------------------|
--------0------------2------|--------0-----------2------|
-----0-----0------2-----2---|-----0-----0-----2-----2---|
---------------0------------|--------------0------------|
--3-------------------------|--3------------------------|


                                         ^                                    
  E  E  E  E  E  E  E  E     E  E  E  E  H           E  E  E  E  E  E  E  E   
--3-----------0-----------|--------------2--------|--2-----------------5-----|
--------3-----------3--2--|--3-----3-----3--------|--------3-----------3-----|
--------0-----------2-----|-----2-----2--2--------|-----2-----2-----2-----2--|
-----0-----0-----2-----2--|--0-----------0--------|--0-----------0-----------|
--------------0-----------|-----------------------|--------------------------|
--3-----------------------|-----------------------|--------------------------|


  E  E  E  E  E  E  E  E     E  E  E  E  E  E  E  E   
--3--------------------0--|--2-----------------2-----|
--------------0--2--3-----|--------0-----------------|
--------0-----------0-----|-----------4--3-----------|
-----0-----0-----0-----0--|-----4-----4--------4-----|
--------------------------|--2--------------4-----4--|
--3-----------3-----------|--------------2-----------|


  E  E  E  E  E  E  E  E     E  E  E  E  E  E  E  E   
--------------------------|--------------------0-----|
--0-----2-----3-----3-----|--0--2--3-----2--3--------|
-----------------2-----2--|--------0-----------2-----|
-----0-----2--0-----------|-----0-----0-----2-----2--|
--------0-----------------|--------------0-----------|
--3-----------------------|--3-----------------------|


  E  E  E  E  E  E  E  E     S  S  S  S  S  S  S  S  H          
--7--6--5--4--3--2--1--0--|--2h-3p-2h-3p-2h-3p-2h-3p-2--------||
--------0-----0-----0-----|-----------------------------------||
--------------------------|-----------------------------------||
-----4-----4-----4-----4--|-----------------------------------||
--------------------------|--2--------------------------------||
--7-----------------------|-----------------------------------||




Duration Legend
---------------
H - half
E - 8th
S - 16th
. - note dotted


Tablature Legend
----------------
L - tied note
h - hammer on
p - pull off
^ - brush up


Login or Register to remove this ad.

1 comment on Ai No Uta

Nice!

5

Sounds really good, fun to play too.