Won the Case ~ First Victory (Phoenix Wright: Ace Attorney) Guitar Tab

Submitted: Sep 22, 2011 by victormon

5
Average: 5 (3 votes)
Download | Listen
Game: Phoenix Wright: Ace Attorney
Composer(s): Naoto Tanaka, Masakazu Sugimori
Style: Arrangement, Artificial harmonics, Fingerstyle
Series: Phoenix Wright

AutoScroll: Slow | Medium | Fast
Title: Won The Case! ~ First Victory
Phoenix Wright - Ace Attorney
composed by Sugimori Masakazu, Kimura Akemi
Tabbed By victormon

Legend
L - tied note
x - dead note
h - hammer on/pull off
b - bend
s - slide
~ - vibrato
g - ghost note
> - accentuated note
t - trill
M - palm mute
. - staccato
P - popping (bass)
S - slapping (bass)
+ - tapping
W - wide vibrato
< - fade in
w - whammy bar
= - tremolo picking
v - brush up
^ - brush down
V - pick stroke up
n - pick stroke down

                                              
E |--3--1----||-0-----------------0----------|
B |----------||-------1-----3----------------|
G |----------||o---0-----0-----0-----0-------|
D |----------||o-----------------------------|
A |----------||-3----------------------------|
E |----------||------------------------------|

                                                                   
--1-----0--------------3----------|--0-----------------3----------|
--------------1-----3-------------|--------1-----3----------------|
-----0-----0-----0----------------|-----0-----0-----0-----0-------|
----------------------------------|-------------------------------|
-(3)----------2-------------------|--0----------------------------|
----------------------------------|-------------------------------|

                                                                   
--1-----0--------------3----------|--0-----------------0----------|
--------------1-----3-------------|--------1-----3----------------|
-----0-----0-----0----------------|-----0-----0-----0-----0-------|
----------------------------------|-------------------------------|
-(0)------------------------------|-------------------------------|
--------------3-------------------|--1----------------------------|

                                                                
--1-----0----------------------|--------------3--------3-------|
--------------1-----3----------|-----------3--------3----------|
-----0-----0-----0-----0-------|--5-----5--------5-------------|
-------------------------------|-------------------------------|
-------------------------------|-------------------------------|
-(1)---------------------------|--3----------------------------|

 _________________________________________________________
|1.                                                           
--0------------------------------------------------------||
--------------------3--1--3------------------------------||
--------------------------------------0-----------------o||
--------------------------------------------------------o||
---------------------------------------------------------||
--3-----------------------3------------------------------||

 _________________________________________________________________
|2.                                                                               
--0------------------------------------------|-------------------|
--------------------3--1--3------------------|--1-----1----------|
--------------------------------------0------|-----0-----0-------|
---------------------------------------------|-------------------|
---------------------------------------------|-------------------|
--3-----------------------3------------------|--3----------------|


                                                             
-----------------------0-------|--0--1--0-------|
--3-----------3----------------|-----------1----|
--------0-----------0----------|----------------|
--0----------------------------|--2--------2----|
-------------------------------|----------------|
-------------------------------|----------------|

                                                                             
--------------3--1--0----------|-------------------|-----3-------|--0-------|
--1-----1--3-----------1-------|--1-----1----------|--3----------|----------|
-------------------------------|-----0-----0-------|-------------|----------|
--2----------------------------|-------------------|--0----------|--2-------|
-------------------------------|--3----------------|-------------|----------|
-------------------------------|-------------------|-------------|----------|

                                                                           
-(0)----------3--1--0-------------|-------------------|-------------------|
--------1--3----------------------|--1-----1----------|--3-----3----------|
----------------------------------|-----0-----0-------|-----0-----0-------|
-(2)------------------------------|-------------------|--0----------------|
--------------2-------------------|--3----------------|-------------------|
----------------------------------|-------------------|-------------------|

                                                             
--0--1--0----------|-----3----------|--3-------|--(3)----------|
-----------1-------|--1-------------|----------|-------1-------|
-------------------|----------------|----------|---------------|
--2----------------|----------------|----------|---------------|
-------------------|----------------|----------|---------------|
-------------------|--1--3----------|--3-------|--(3)----------|

 _________________________________________________
|3.
-------------------------------|------------------||
--1----------------------------|------------------||
--------------------4--2-------|--4--------0-----o||
-------------------------------|-----------------o||
-------------------------------|------------------||
--3----------------------------|-(3)--------------||

 _________________________________________________________
|4. 							    A.H
--0-------------------------------------------------------|-------|--------||
--------------------3--1--3-----------0-------------------|--<1>--|--(1)---||
----------------------------------------------------------|-------|--------||
----------------------------------------------------------|-------|--------||
----------------------------------------------------------|-------|--------||
--3-----------------------3-------------------------------|-------|--------||
Login or Register to remove this ad.

1 comment on Won the Case ~ First Victory

This made my day. Always love

5

This made my day. Always love seeing Phoenix Wright stuff. =)