Login or Register to remove this ad.

Tell the Truth 2001 (Phoenix Wright: Ace Attorney) Bass/Guitar Tab

Submitted: Aug 08, 2009 by auriplane (Last updated: Apr 05, 2010)

5
Average: 5 (3 votes)
Download | Listen
Game: Phoenix Wright: Ace Attorney
Composer(s): Naoto Tanaka, Masakazu Sugimori
Style: 2 or more instruments, Arrangement, Transcription
Series: Phoenix Wright

AutoScroll: Slow | Medium | Fast
                  Phoenix Wright - Tell the Truth!  2001 GUITAR & BASS TAB                                
                                   Song by Noriyuki Iwadare         

                       Tabbed/arranged by Auriplane ([email protected])


This is an electric guitar "arrangement", only slightly arranged of course.  The lead and
bass are pretty much the same as the original, so you can play those parts along with the
soundtrack version, and the rhythm guitar mostly fits as well.  And, I made up the drum
part, which you can hear in the MIDI / GP5 file.

So, if you don't care for the "arrangement"ness, just play the lead & bass XD

Two guitars and one bass, all in standard tuning.



                                        Lead Guitar


  S S S S S S S S  S S S S S S S S S S S S         S S S S S S S S  S S S S S S S S S S  S S   
|-5-0-7-0-8-0-7-0-10-0-7-0-8-0-7-0-3-0-5-0-|     |-5-0-7-0-8-0-7-0-10-0-7-0-8-0-7-0-8-0-15-0-|
|------------------------------------------|     |-------------------------------------------|
|------------------------------------------| x3  |-------------------------------------------|
|------------------------------------------|     |-------------------------------------------|
|------------------------------------------|     |-------------------------------------------|
|------------------------------------------|     |-------------------------------------------|


  S S S S S S S S  S S S S S S S S S S S S         S S S S S S S S  S S S S S S S S S S  S S   
|-5-0-7-0-8-0-7-0-10-0-7-0-8-0-7-0-3-0-5-0-|     |-5-0-7-0-8-0-7-0-10-0-7-0-8-0-7-0-8-0-15-0-|
|------------------------------------------|     |-------------------------------------------|
|------------------------------------------| x3  |-------------------------------------------|
|------------------------------------------|     |-------------------------------------------|
|------------------------------------------|     |-------------------------------------------|
|------------------------------------------|     |-------------------------------------------|

    Rest for two measures, and repeat.



                                       Rhythm Guitar


        Part A


  W               Q        W               Q        W               Q        W               Q       
|------------------------|------------------------|------------------------|------------------------|
|------------------------|------------------------|------------------------|------------------------|
|------------------------|------------------------|------------------------|------------------------|
|-7---------------5------|-3---------------5------|-7---------------2------|-3---------------5------|
|-7---------------5------|-3---------------5------|-7---------------2------|-3---------------5------|
|-5---------------3------|-1---------------3------|-5---------------0------|-1---------------3------|
                                                                                                   
                                                                                                   
  E  E  H.        Q        E  E  H.        Q        E  E  H.        Q        E  E  H.        Q       
|------------------------|------------------------|------------------------|------------------------|
|------------------------|------------------------|------------------------|------------------------|
|------------------------|------------------------|------------------------|------------------------|
|-7--7------------5------|-3--3------------5------|-7--7------------2------|-3--3------------5------|
|-7--7------------5------|-3--3------------5------|-7--7------------2------|-3--3------------5------|
|-5--5------------3------|-1--1------------3------|-5--5------------0------|-1--1------------3------|
                                               
                                               
  E  E  H.        E  S S   E  E  H.        Q       
|------------------------|------------------------|
|------------------------|------------------------|
|------------------------|------------------------|
|-7--7---------------5-5-|-7--7------------5------|
|-7--7---------------5-5-|-7--7------------5------|
|-5--5---------------3-3-|-5--5------------3------|


        Part B


  E  E  H.        Q        E  E  H.        Q        E  E  H.        Q        E  E  H.        Q       
|------------------------|------------------------|------------------------|------------------------|
|------------------------|------------------------|------------------------|------------------------|
|------------------------|------------------------|------------------------|------------------------|
|-7--7------------5------|-3--3------------5------|-7--7------------2------|-3--3------------5------|
|-7--7------------5------|-3--3------------5------|-7--7------------2------|-3--3------------5------|
|-5--5------------3------|-1--1------------3------|-5--5------------0------|-1--1------------3------|
                                                                                                  
                                                                                                  
  E  E  H.        Q        E  E  H.        Q        E  E  H.        Q        E  E  H.        Q       
|------------------------|------------------------|------------------------|------------------------|
|------------------------|------------------------|------------------------|------------------------|
|-9--9------------7------|-5--5------------7------|-9--9-------------------|------------------------|
|-7--7------------5------|-3--3------------5------|-7--7------------9------|-10-10-----------12-----|
|-7--7------------5------|-3--3------------5------|-7--7------------7------|-8--8------------10-----|
|------------------------|------------------------|-----------------7------|-8--8------------10-----|
                                                 
                                                 
  E  E  H.        E  S S   E  E  H.        Q       
|------------------------|------------------------|
|------------------------|------------------------|
|------------------------|------------------------|
|-7--7---------------5-5-|-7--7------------5------|
|-7--7---------------5-5-|-7--7------------5------|
|-5--5---------------3-3-|-5--5------------3------|


        Part C


  W               Q        W               Q        W               Q        W               Q       
|------------------------|------------------------|------------------------|------------------------|
|------------------------|------------------------|------------------------|------------------------|
|------------------------|------------------------|------------------------|------------------------|
|-7---------------5------|-3---------------5------|-7---------------2------|-3---------------5------|
|-7---------------5------|-3---------------5------|-7---------------2------|-3---------------5------|
|-5---------------3------|-1---------------3------|-5---------------0------|-1---------------3------|

                                                                                                   
  E  E  H.        Q        E  E  H.        Q        E  E  H.        Q        E  E  H.        Q       
|------------------------|------------------------|------------------------|------------------------|
|------------------------|------------------------|------------------------|------------------------|
|-9--9------------7------|-5--5------------7------|-9--9------------4------|-5--5------------7------|
|-7--7------------5------|-3--3------------5------|-7--7------------2------|-3--3------------5------|
|-7--7------------5------|-3--3------------5------|-7--7------------2------|-3--3------------5------|
|------------------------|------------------------|------------------------|------------------------|


  E  E  W                
|------------------------|
|------------------------|
|------------------------|
|-7--7-------------------|
|-7--7-------------------|
|-5--5-------------------|



                                      Electric Bass

        Part A


  W                               Q         W                               Q        
|-----------------------------------------|-----------------------------------------|
|-----------------------------------------|-----------------------------------------|
|-----------------------------------------|-----------------------------------------|
|-5-------------------------------3-------|-1-------------------------------3-------|
                                                                                  
  W                               Q         W                               Q        
|-----------------------------------------|-----------------------------------------|
|-----------------------------------------|-----------------------------------------|
|-----------------------------------------|-----------------------------------------|
|-5-------------------------------0-------|-1-------------------------------3-------|


  E   E   H               S S S S S S S S   E   E   H               S S S S S S S S  
|-----------------------------------------|-----------------------------------------|
|-----------------------------------------|-----------------------------------------|
|-0---0---------------------2-3-5-2-3-2---|---------------------------------0-3-2-5-|
|---------------------------------------3-|-1---1---------------------5-3-----------|
                                                                    
                                                                    
  E   E   H               S S S S E   E     E   E   H               E   E   S S E    
|-----------------------------------------|-----------------------------------------|
|---------------------------2-------------|-----------------------------------------|
|-0---0-----------------------5-3-2-------|-----------------------------------2-3---|
|-------------------------------------3---|-1---1-----------------------3---3-------|


  E   E   H               E   E   E   E     E   E   W                                
|-----------------------------------------|-----------------------------------------|
|-----------------------------------------|-----------------------------------------|
|-0---0-----------------------------------|-0---0-----------------------------------|
|-------------------------------------3---|-----------------------------------------|


        Part B
                                                                   
                                                                   
  E   E   H               S S S S S S S S   E   E   H               S S S S S S S S  
|-----------------------------------------|-----------------------------------------| \ 
|-----------------------------------------|-----------------------------------------|   \
|-0---0---------------------2-3-5-2-3-2---|---------------------------------0-3-2-5-|    |
|---------------------------------------3-|-1---1---------------------5-3-----------|    |
                                                                                         |
                                                                                         | x2
  E   E   H               S S S S E   E     E   E   H               E   E   S S E        |
|-----------------------------------------|-----------------------------------------|    |
|---------------------------2-------------|-----------------------------------------|    |
|-0---0-----------------------5-3-2-------|-----------------------------------2-3---|   /
|-------------------------------------3---|-1---1-----------------------3---3-------| /
                                                                   
                                                                   
  E   E   H               E   E   E   E     E   E   W                                
|-----------------------------------------|-----------------------------------------|
|-----------------------------------------|-----------------------------------------|
|-0---0-----------------------------------|-0---0-----------------------------------|
|-------------------------------------3---|-----------------------------------------|


        Part C


  W                               Q         W                               Q        
|-----------------------------------------|-----------------------------------------|
|-----------------------------------------|-----------------------------------------|
|-----------------------------------------|-----------------------------------------|
|-5-------------------------------3-------|-1-------------------------------3-------|


  W                               Q         W                               Q        
|-----------------------------------------|-----------------------------------------|
|-----------------------------------------|-----------------------------------------|
|-----------------------------------------|-----------------------------------------|
|-5-------------------------------0-------|-1-------------------------------3-------|


  E   E   H               S S S S S S S S   E   E   H               S S S S S S S S  
|-----------------------------------------|-----------------------------------------|
|-----------------------------------------|-----------------------------------------|
|-0---0---------------------2-3-5-2-3-2---|---------------------------------0-3-2-5-|
|---------------------------------------3-|-1---1---------------------5-3-----------|
                                                                   
                                                                   
  E   E   H               S S S S E   E     E   E   H               E   E   S S E    
|-----------------------------------------|-----------------------------------------|
|---------------------------2-------------|-----------------------------------------|
|-0---0-----------------------5-3-2-------|-----------------------------------2-3---|
|-------------------------------------3---|-1---1-----------------------3---3-------|


  E   E   W                                
|-----------------------------------------|
|-----------------------------------------|
|-0---0-----------------------------------|
|-----------------------------------------|







Duration Legend
---------------
W - whole
H - half
Q - quarter
E - 8th
S - 16th
. - note dotted

Login or Register to remove this ad.