Maya Fey's Theme (Phoenix Wright: Ace Attorney) Guitar Tab

Submitted: Jul 15, 2011 by victormon (Last updated: Apr 16, 2015)

5
Average: 5 (2 votes)
Download | Listen
Game: Phoenix Wright: Ace Attorney
Composer(s): Naoto Tanaka, Masakazu Sugimori
Style: Transcription
Series: Phoenix Wright

AutoScroll: Slow | Medium | Fast
Maya Fey's Theme ~ Turnabout Sisters 2001
Phoenix Wright - Ace Attorney
Composer: Masakazu Sugimori
Tabbed by: victormon

Not very 'dense'. I tabbed it a while ago and recently found it.

e|-8-9-11--11-----7/8-------------------|-8-9-11-11-----7/8-----------11---8--|
B|------------9-------11-9-8-9-11-9-----|-----------9-------11-9-11-----------|
G|--------------------------------------|-------------------------------------|
D|--------------------------------------|-------------------------------------|
A|--------------------------------------|-------------------------------------|
E|--------------------------------------|-------------------------------------|

e|-8-9-11--11-----7/8-------------------|-8-9-11--11-16--8/9-8----------------|
B|------------9-------11-9-8-9-11-9-----|----------------------9---9-8-9------|
G|--------------------------------------|------------------------8------------|
D|--------------------------------------|-------------------------------------|
A|--------------------------------------|-------------------------------------|
E|--------------------------------------|-------------------------------------|

e|-8-9-11--11-----7/8-------------------|-8-9-11-11-----7/8-----------11---8--|
B|------------9-------11-9-8-9-11-9-----|-----------9-------11-9-11-----------|
G|--------------------------------------|-------------------------------------|
D|--------------------------------------|-------------------------------------|
A|--------------------------------------|-------------------------------------|
E|--------------------------------------|-------------------------------------|

e|-8-9-11--11-----7/8-------------------|-8-9-11--11-16-----------------------|
B|------------9-------11-9-8-9-11-9-----|-----------------9----9-8-9----------|
G|--------------------------------------|---------------------8---------------|
D|--------------------------------------|-------------------------------------|
A|--------------------------------------|-------------------------------------|
E|--------------------------------------|-------------------------------------|

e|-8-9-11-11-11--8p9-8---------8-------8|-11-11-16-----8/9-8------------------|
B|---------------------11p9-11----9-11--|----------9----------11p9-11---------|
G|--------------------------------------|-------------------------------------|
D|--------------------------------------|-------------------------------------|
A|--------------------------------------|-------------------------------------|
E|--------------------------------------|-------------------------------------|

e|-8-9-11-11-11--8p9-8---------8-------8|-11-11-16-----8/9-8------------------|
B|---------------------11p9-11----9-11--|----------9----------11p9-11--9--11-9|
G|--------------------------------------|-------------------------------------|
D|--------------------------------------|-------------------------------------|
A|--------------------------------------|-------------------------------------|
E|--------------------------------------|-------------------------------------|
  
e|----11----11-----11-----11-------9-8--|----11----11-----11----11---11--9-8--|
B|--9-----9------9------9-----9-9------9|--9-----9-------9----9-----9--------9|
G|8------8-----8------8------8----------|8------8------8----8------8----------|
D|--------------------------------------|-------------------------------------|
A|--------------------------------------|-------------------------------------|
E|--------------------------------------|-------------------------------------|

e|----11----11----11-----11-------11-11\|
B|--9-----9-----9-------9------------9-\|
G|8------8----8-------8-----------------|
D|--------------------------------------|
A|--------------------------------------|
E|--------------------------------------|

e|------------------------------------------|
B|-9-11-9-11-11-9-11-9---9-11-9-11-11-9-11~-|
G|------------------------------------------|
D|------------------------------------------|
A|------------------------------------------|
E|------------------------------------------|
Login or Register to remove this ad.

2 comments on Maya Fey's Theme

Wrong game!

I know it's from 4 years ago, but this song doesn't appear at least once in Apollo Justice.

Edited :-)

Edited :-)