Login or Register to remove this ad.

Pain (Phantasy Star 4) Guitar Tab

Submitted: Mar 02, 2010 by Shade

5
Average: 5 (2 votes)
Download | Listen
Game: Phantasy Star 4
Composer(s): Izuho Takeuchi, Yoshimi Nakagaki
Style: Arrangement, Fingerstyle
Series: Phantasy Star

AutoScroll: Slow | Medium | Fast
Phantasy Star IV
Pain

   E  E  E  E  E  E  E  E     E  E  E  E  E  E  E  E
e--------------0-----------|--------------------------|
B--------1-----------------|--------------------------|
G--2-----------------------|--1-----------------------|
D-----2-----2-----2--3--2--|--------------2-----------|
A--0-----------------------|-----2--3--2-----2--3--2--|
E--------------------------|--4-----------------------|


   E E  E  E  E  E  E  E     E  E  E  E  E  E  E  E
e-------------------------|--------------------------|
B-------1-----0-----------|-----------------------3--|
G----0-----0-----0--2--0--|--2-----------2-----2-----|
D-------------------------|-----0--2--0-----0--------|
A-------------------------|--------------------------|
E--3----------------3-----|--2-----------------2-----|


   E  E  E  E  E  E  E  E     E  E  E  E  E  E  E  E  
e--------------------------|--------------------------|
B--------1-----0-----------|--------1-----0-----------|
G--2-----2-----2-----2-----|--2-----2-----2-----2-----|
D-----3-----3-----3--3-----|-----2-----2-----2--2-----|
A--------------------------|--------------------------|
E--1--------------------1--|--0--------------------0--|


   E  E  E  E  E  E  E  E      E  E  E  E  H
e--------------------------|---------------0--||
B--------1-----0-----------|------------0--0--||
G--2-----2-----2-----2-----|---1-----1-----1--||
D-----1-----1-----1--1-----|------2--------2--||
A--2--------------------2--|---------------2--||
E--------------------------|---0-----------0--||


   Q    Q   Q   Q      W
e-------5---7---3--|---5---||
B-------5---7---2--|---5---||
G--2----5---7---3--|---5---||
D------------------|---7---||
A--0---------------|---7---||
E------------------|---5---||
Login or Register to remove this ad.

2 comments on Pain

cute ! i like it ^^

5

cute ! i like it ^^

thanks, i dont know what i

thanks, i dont know what i was doing with the end there, well, i do, but i failed. ignore those last few chords!