Village (Phantasy Star 3) Guitar Tab

Submitted: Nov 20, 2010 by Wren

0
Download | Listen
Game: Phantasy Star 3
Composer(s): Izuho Takeuchi
Style: Arrangement, Fingerstyle

AutoScroll: Slow | Medium | Fast
Title: Village
Game: Phantasy Star III
Composer: Izuho Takeuchi
Tabber: Wren 


Track 1: 

E|-0----1----3----|-----------0----|----------------|-----------0----|------0----1----|
B|----------------|-1----3---------|------0----1----|-1----3---------|-3--------------|
G|----------------|----------------|-2--------------|----------------|----------------|
D|----------------|----------------|----------------|----------------|-0--------------|
A|-3--------------|-3--------------|-0--------------|-0--------------|----------------|
E|----------------|----------------|----------------|----------------|----------------|


E|----------------|----------------|------0----1----|-0----1----3----|-----------0----|
B|-0----1----3----|-----------0----|-3--------------|----------------|-1----3---------|
G|----------------|-0----2---------|----------------|----------------|----------------|
D|-0--------------|----------------|----------------|----------------|----------------|
A|----------------|----------------|----------------|-3--------------|-3--------------|
E|----------------|-3--------------|-3--------------|----------------|----------------|


E|----------------|-----------0----|------0----1----|----------------|----------------|
B|------0----1----|-1----3---------|-3--------------|-0----1----3----|-----------0----|
G|-2--------------|----------------|----------------|----------------|-0----2---------|
D|----------------|----------------|-0--------------|-0--------------|----------------|
A|-0--------------|-0--------------|----------------|----------------|----------------|
E|----------------|----------------|----------------|----------------|-3--------------|


E|------0----1----|-----------6----|-6-----8---6----|-5----------|--------|--------|
B|-3--------------|------6---------|----------------|-------6----|-1------|-3------|
G|----------------|-7---------7----|-7---------7----|-5----------|--------|-0------|
D|----------------|----------------|----------------|-------7----|-3------|--------|
A|----------------|----------------|----------------|------------|-0------|--------|
E|-3--------------|-6--------------|-6--------------|-5----------|--------|-3------|


E|------3----5----|-5----6----5----|-1--------------|-----------6----|-6-----8---6----|
B|-6--------------|----------------|----------------|------6---------|----------------|
G|----------------|----------------|-2--------------|-7---------7----|-7---------7----|
D|----------------|-3--------------|----------------|----------------|----------------|
A|----------------|----------------|-----------0----|----------------|----------------|
E|-3--------------|----------------|-1----3---------|-6--------------|-6--------------|


E|-5----------|--------|--------|------3----5----|-5----6----5----|-5----3----1----|
B|-------6----|-1------|-3------|-6--------------|----------------|----------------|
G|-5----------|--------|-0------|----------------|----------------|-5----3----2----|
D|-------7----|-3------|--------|----------------|----------------|----------------|
A|------------|-0------|--------|----------------|-3--------------|-3--------------|
E|-5----------|--------|-3------|-3--------------|----------------|----------------|


E|----0-----0-----0-----0-----0-----0--|-------------------------|-3--5--3--5--3--5--3--5--3--5--3--5--|
B|-3-----3-----3-----3-----3-----3-----|-----3-------5-------6---|-------------------------------------|
G|-------------------------------------|-------------------------|-------------------------------------|
D|-0-----------------------------------|-0-------2-------3-------|-------------------------------------|
A|-------------------------------------|-------------------------|-------------------------------------|
E|-------------------------------------|-------------------------|-3-----------------------------------|


E|-3-----1----|-0--1--0--1--0--1--0--1--0--1--0--1--|-0----1----3----|-1--3--1--3--1--3--1--3--1--3--1--3--|
B|-3----------|-------------------------------------|----------------|-------------------------------------|
G|------------|-------------------------------------|----------------|-------------------------------------|
D|------------|-------------------------------------|----------------|-------------------------------------|
A|------------|-3-----------------------------------|-3--------------|-------------------------------------|
E|-3----------|-------------------------------------|----------------|-1-----------------------------------|


E|-1------|----0-----0-----0-----0-----0-----0--|-------------------------|-3--5--3--5--3--5--3--5--3--5--3--5--|
B|--------|-3-----3-----3-----3-----3-----3-----|-----3-------5-------6---|-------------------------------------|
G|--------|-------------------------------------|-------------------------|-------------------------------------|
D|--------|-0-----------------------------------|-0-------2-------3-------|-------------------------------------|
A|--------|-------------------------------------|-------------------------|-------------------------------------|
E|-1------|-------------------------------------|-------------------------|-3-----------------------------------|


E|-3-----1----|-0--1--0--1--0--1--0--1--0--1--0--1--|-0----1----3----|-1------|-1------|
B|-3----------|-------------------------------------|----------------|--------|--------|
G|------------|-------------------------------------|----------------|--------|--------|
D|------------|-------------------------------------|----------------|--------|--------|
A|------------|-3-----------------------------------|-3--------------|--------|--------|
E|-3----------|-------------------------------------|----------------|-1------|-1------|


E|-0----1----3----|-----------0----|----------------|-----------0----|------0----1----|
B|----------------|-1----3---------|------0----1----|-1----3---------|-3--------------|
G|----------------|----------------|-2--------------|----------------|----------------|
D|----------------|----------------|----------------|----------------|-0--------------|
A|-3--------------|-3--------------|-0--------------|-0--------------|----------------|
E|----------------|----------------|----------------|----------------|----------------|


E|----------------|----------------|------0----1----|-0--------------|--------|
B|-0----1----3----|-----------0----|-3--------------|----------------|--------|
G|----------------|-0----2---------|----------------|----------------|--------|
D|-0--------------|----------------|----------------|----------------|--------|
A|----------------|----------------|----------------|-3--------------|--------|
E|----------------|-3--------------|-3--------------|----------------|--------|


Login or Register to remove this ad.