Ads

Layer Cake (Persona 5) Bass Tab

Submitted: Aug 20, 2017 by Nightwatch

0
Download | Listen
Game: Persona 5
Composer(s): Shoji Meguro
Style: Transcription

AutoScroll: Slow | Medium | Fast
Persona 5
Layer Cake
Shoji Meguro
Alfredo(Fred) Cánovas
10/08/2017 (DD/MM/YYYY)


Intro:
This is played on 5 string (B0), but as an alternative, you can play an A0 if you have a 4 string.

  W          H    +E  Q  E   W          W
|----------|---------------|----------|------|
|----------|---------------|----------|------|
|-2--------|-2----(2)-0----|-2--------|-2----|
|----------|---------------|----------|------|
|----------|-------------0-|----------|------|

Verse

    E. S S S S S S E S S S S S   S S S S E E E S S S S E   +E. S S S S S S E S S S S S   S S S S E E E S S S E.
||-----------------------------|-------------------------|-----------------------------|------------------------|
||o----------------------------|-------------------------|-----------------------------|------------------------|
||o-2--2p0h2-----------0h2-----|-------------0-0-----0-2-|-(2)-2p0h2-----------0h2-----|-------------0-0-----0--|
||-------------2p0---2-------2-|-0h2---2p0-2-----2-------|-------------2p0---2-------2-|-0h2---2p0-2-----2------|


  E. S S S S S E. S S S S S   S S S S E E E S S S S S S   E. S S S S S S E S S S S S   S S S S E E E S S S E.  3x
|---------------------------|---------------------------|----------------------------|-------------------------||
|-2--2p0-2----------0h2-----|-------------0-0-----------|----------------------------|------------------------o||
|------------2----2-------2-|---2---2p0-2-----2---0---0-|-2--2p0h2-----------0h2-----|-------------0-0-----0--o||
|---------------------------|---------------------------|------------2p0---2-------2-|-0h2---2p0-2-----2-------||


  E. S S S S S S E S S S S S   S S S S E E E S S S S E   +E. S S S S S S E S S S S S   S S S S E E E S S S E.
|----------------------------|-------------------------|-----------------------------|------------------------|
|----------------------------|-------------------------|-----------------------------|------------------------|
|-2--2p0h2-----------0h2-----|-------------0-0-----0-2-|-(2)-2p0h2-----------0h2-----|-------------0-0-----0--|
|------------2p0---2-------2-|-0h2---2p0-2-----2-------|-------------2p0---2-------2-|-0h2---2p0-2-----2------|


  E. S S S S S E. S S S S S   S S S S E E E S S S S S S   E. S S S S S S E S S S S S   S S S S E E E S S S S E
|---------------------------|---------------------------|----------------------------|-------------------------|
|-2--2p0-2----------0h2-----|-------------0-0-----------|----------------------------|-------------------------|
|------------2----2-------2-|---2---2p0-2-----2---0---0-|-2--2p0h2-----------0h2-----|-------------0-0---------|
|---------------------------|---------------------------|------------2p0---2-------2-|-0h2---2p0-2-----2---0---|

Chorus

    E E E Q  E E E   +E  E E Q  E E E   +E. S S S S S S S E S E.   Q  S S S S S S E S E.
||-----------------|------------------|--------------------------|-------------------------|
||o---2------4-----|-----5------------|--------------------------|-------------------------|
||o----------------|------------------|-------------------5------|----------------5--------|
||--0-----2------3-|-(3)-----5--5---7-|-(7)---7p5---7---7---7-5--|-7--7p5---7---7---7-5----|


  E E E Q  E E E   +E  E E Q  E E E   E. S S S S S S S E S E.   Q  S S S S S S E S E.
|----------------|------------------|-------------------------|------------------------||
|---2------4-----|-----5------7---7-|-------------------------|-----------------------o||
|----------------|------------------|------------------5------|----------------5------o||
|-0-----2------3-|-(3)-----5----5---|-7----7p5---7---7---7-5--|-7--7p5---7---7---7-5---||


    E E E Q  E E E   +E  E E Q  E E E   E. S S S S S S S E S E.   Q  S S S S S S E S E.    4x
||-----------------|------------------|-------------------------|--------------------------||
||o---2------4-----|-----5------7---7-|-------------------------|-------------------------o||
||o----------------|------------------|------------------5------|----------------5--------o||
||--0-----2------3-|-(3)-----5----5---|-7----7p5---7---7---7-5--|-7--7p5---7---7---7-5-----||
Login or Register to remove this ad.