Ads

Last Surprise (Persona 5) Guitar Tab

Submitted: Dec 17, 2020 by thunderbulb (Last updated: Dec 18, 2020)

5
Average: 5 (2 votes)
Download | No audio :(
Game: Persona 5
Composer(s): Shoji Meguro
Style: Arrangement

AutoScroll: Slow | Medium | Fast
Persona 5 - Last Surprise
e|-12h13p12---------------------12h13p12---------------------|
B|----------15-13h15p13------------------15-13h15p13---------|
G|----------------------14-12-14---------------------14-13~--|
D|-----------------------------------------------------------|
A|-----------------------------------------------------------|
E|-----------------------------------------------------------|

e|-12h13p12---------------------12h13p12---------------------|
B|----------15-13h15p13------------------15-13-15------------|
G|----------------------14-12-14------------------14-13-12~--|
D|-----------------------------------------------------------|
A|-----------------------------------------------------------|
E|-----------------------------------------------------------|

e|--------------------------------------------------------|
B|-----------------10-13~-13-15---------------------------|
G|-----10----10------------------12-12-12-10----12b-12-10-|
D|-/12----12----12---------------------------12-----------|
A|--------------------------------------------------------|
E|--------------------------------------------------------|

e|--------------------------------------------|--------------|
B|-----10-13~-13-15---------------------------|--------------|
G|-------------------12-12-12-10----12b-12-10-|-14~-12-12-10-|
D|--12---------------------------12-----------|--------------|
A|--------------------------------------------|--------------|
E|--------------------------------------------|--------------|
Login or Register to remove this ad.