Ads

Institute Menu (Perfect Dark) Guitar Tab

Submitted: Jul 28, 2019 by challenger_charles (Last updated: Jul 30, 2019)

0
Download | Listen
Game: Perfect Dark
Composer(s): Grant Kirkhope
Style: Arrangement, Fingerstyle

AutoScroll: Slow | Medium | Fast

I really like the menu soundtrack, yet there wasn't any good tabs for it. So I took a midi file, merged the tracks together, then tweaked it to feel less empty.

I suggest to see the PDF or Guitar Pro version, since there's a lot of tied notes and they aren't shown well in the text version.

Tempo = 95

Standard Tuning

4/4

    E  S S E  S S E  S S E  S S   E  S S E  S S E  S S E  S S   E  S S E  S S E  S S E  S S  
E||----3-3----3-3----4-4----4-4-|----3-3----3-3----4-4----4-4-|---3--3----3-3----4-4----4-4-|
B||-1------1------1------1------|-1------1------1------1------|-1------1------1------1------|
G||-----------------------------|-----------------------------|-----------------------------|
D||-----------------------------|-----------------------------|-----------------------------|
A||-3---------------------------|-3---------------------------|-3---------------------------|
E||-----------4-----------------|-----------4-----------------|-----------4-----------------|
 
  E  S S E  S S E  S S E  S S   E  S S E  S S E  S S E  S S   E  S S E  S S E  S S E  S S  
|----3-3----3-3----4-4----4-4-|----3-3----3-3----2-2----2-2-|----3-3----3-3----2-2----2-2-|
|-1------1------1------1------|-1------1------1------1------|-1------1------1------1------|
|-----------------------------|-----------------------------|-----------------------------|
|-----------------------------|-----------------------------|-----------------------------|
|-3---------------------------|-3---------------------------|-3---------------------------|
|-----------4-----------------|-----------2-----------------|-----------2-----------------|
 
  E  S S E  S S E  S S E  S S   E  S S E  S S E  S S E  S S  
|----3-3----3-3----2-2----2-2-|----3-3----3-3----2-2----2-2-|
|-1------1------1------1------|-1------1------1------1------|
|-----------------------------|-----------------------------|
|-----------------------------|-----------------------------|
|-3---------------------------|-3---------------------------|
|-----------2-----------------|-----------2-----------------|




  Q.  H    E   E E E Q  Q  E   Q.  H    E   E E E E Q.  E   Q.  E H      Q.  Q  E E E  
|-1---3------|----------8--9-|-8----------|-------------9-|-8---7(7)---|-----7------13|
|------------|---9-----------|------------|---8-----9-----|------------|-10-------12--|
|------------|---------------|-----10-----|---------------|------------|--------10----|
|-3----------|---------------|------------|---------------|------------|--------------|
|-----4------|-8---8---------|-8----------|-8---8---------|-8----------|-8------------|
|----------9-|-------9-----9-|-----9----9-|-------9-----9-|-----7(7)---|-----7--------|
 
  Q.  H    E   Q.  E H      Q.  H    E   E E E Q  Q  E   Q.  H    E   E E E E Q.  E  
|-----7----8-|-7---5(5)---|------------|----------3--4-|-3----------|-------------4-|
|-13---------|------------|-----3------|---4-----------|------------|---3-----4-----|
|------------|------------|-5----------|---------------|-----5------|---------------|
|------------|------------|------------|---------------|------------|---------------|
|------------|-8----------|-3----------|-3---3---------|-3----------|-3---3---------|
|-13--7----7-|-----7(7)---|-----4----4-|-------4-----4-|-----4----4-|-------4-----4-|

  Q.  E H      Q.  Q  E E E   Q.  H    E   Q.  E H  
|-3---2(2)---|-0---2------8-|-----2----3-|-2---0(0)---||
|------------|----------7---|-8----------|------------||
|------------|--------5-----|------------|------------||
|------------|--------------|------------|------------||
|-3----------|-3------------|------------|-3----------||
|-----2(2)---|-----2--------|-8---2------|-----2(2)---||
 


Duration Legend
---------------
H - half
Q - quarter
E - 8th
S - 16th
(#) note tied to previous
. - note dotted

Created (partially) with TablEdit http://www.tabledit.com/
Login or Register to remove this ad.