Ads

Tavern (World of Warcraft) Bass/Guitar Tab

Submitted: Nov 28, 2008 by Gamble777 (Last updated: Apr 05, 2010)

3.4
Average: 3.4 (5 votes)
Download | No audio :(
Game: World of Warcraft
Composer(s): David Arkenstone, Derek Duke, Jason Hayes
Style: 2 or more instruments, Alternate picking, Transcription

AutoScroll: Slow | Medium | Fast
This tab is in a different key than the original song.

e-----------------------------------
B----------------0--1--3--1--0------
G----2--2--0--2-----------------2--0
D-2---------------------------------
A-----------------------------------
E-----------------------------------


e-----------------------------
B----------------0--1-----1--0
G----2--2--0--2--------0------
D-2---------------------------
A-----------------------------
E-----------------------------


e-----------------------------------
B----------------0--1--3--1--0------
G----2--2--0--2-----------------2--0
D-2---------------------------------
A-----------------------------------
E-----------------------------------


e--------------------
B-1-----1--3--1--0---
G----0--------------2
D--------------------
A--------------------
E--------------------


This part is for 1st guitar

This next part is for 2nd guitar/bass.  This part is optional since 

its the same notes in a lower octave except for the last riff.  

The last riff harmonizes and i think it sounds cool.


G-------------------
D------------0------
A---0-0-0-2-3-3-2-0-
E-0----3-----------3

G---------------
D---------------
A--0-0-0-2-3-3-2
E-0---3-----3---

G------------------
D-----------0------
A--0-0-0-2-3-3-2-0-
E-0---3-----------3


G----------
D----------
A-0-0-2-0-0
E--0-----3-



Login or Register to remove this ad.

4 comments on Tavern

It really looks like a tavern

5

It really looks like a tavern song even if that it is a modification of the original one really good even being a little short.

I love tavern song =)

nice tab. thx my friend =)

Second Part

Sounds better like this:

E, A, A, G, A, A, B, C, A, G, B, A

Majestic Tavern Song

5

Thanks for the upload Gamble777! The song is easy to pickup even without hearing the original first. I will also note that playing part1 followed by part2 on the same guitar and then alternating a couple times is quite pleasant on the ears :)

IceMasterCho