Adrian's Asleep (Doom 2) Bass Tab

Submitted: Oct 01, 2007 by archard (Last updated: May 07, 2008)

0
Download | Listen
Game: Doom 2
Composer(s): Bobby Prince
Style: Transcription
Series: Doom

AutoScroll: Slow | Medium | Fast
Transcribed by Aaron Morison ([email protected])

Gtr I (E A D G)

  Q=95
4/4
  Gtr I
  Q  S S E +S  E. +E  S S   +E  S S Q  Q  +S  S E   +E  S S +E  S S +Q   S E.
|----3---------4--(4)-----|------------4--(4)-----|---------------4-(4)-------|
|-1------1-(1)------------|-------8---------------|-----8---------------------|
|-----------------------6-|-(6)-----6-----------6-|-(6)---6-(6)------------6--|
|-------------------------|-----------------------|---------------------------|

  +S  S E +S  S E +Q   E. S   +S  Q  E. +E  S S +E  E   Q  Q  +S  S E +S  E S
|---------------4-(4)-------|--------4--(4)-----------|----4--(4)--------------|
|-----8-------------------8-|-(8)-------------------8-|-------------------8----|
|-(6)---6-(6)----------6----|-----6-----------6-(6)---|-6-----------6-(6)---6--|
|---------------------------|-------------------------|------------------------|

  +E  S S +Q   S E. E E   +S  S E +E. S +E  S S +S  E.
|-------4-(4)-----------|-------4-(4)------------------|
|-------------------8---|---------------------8-(8)----|
|-(6)------------6----6-|-(6)---------6-(6)---------6--|
|-----------------------|------------------------------|

  S E. +E  E +E  E Q    Q  +S  Q  E S +E  S S
|---4--(4)------------|-4--(4)--------------4--|
|----------------8----|-----------8------------|
|----------6-(6)---6--|--------6----6-(6)------|
|---------------------|------------------------|

  +Q   Q  E E +S  S S S   +S  E S +E. S +S  E. +S  E.
|-(4)-------------------|-----------------------------|
|---------8---------8---|--------------------------5--|
|------6----6-(6)-----6-|-(6)---------9-(9)-----------|
|-----------------------|-------7-(7)-------7--(7)----|

  +E  E +S  S E E. S +Q     S Q  E S +E  E +Q
|-------------------------|----------------------|
|-(5)--------------5-(5)--|--------------5-(5)---|
|-------------9-----------|------9---------------|
|-----7-(7)-----7---------|---7----7-(7)---------|

  Q  E E +S  E S +E  S S   +E. S +S  E. Q  +S  S E
|------------------------|--------------4--(4)-----|
|------------5-----------|-----8-(8)---------------|
|----9-----------------6-|-(6)-------6-----------6-|
|-7----7-(7)---7-(7)-----|-------------------------|

  +S  S S S +E  S S +Q   S E.
|-----------------4-(4)-------|
|-------8---------------------|
|-(6)-----6-(6)------------6--|
|-----------------------------|

  +S  S E +S  S E +Q   E. S   +S  Q  E S +S  E S +Q
|---------------4-(4)-------|--------4----------------|
|-----8-------------------8-|-(8)--------------4-(4)--|
|-(6)---6-(6)----------6----|-----6----6-(6)----------|
|---------------------------|-------------------------|

  S S E Q  E E +E. S   Q  S E. Q  E E
|--------------------|-----------------|
|-3----------4-(4)-3-|------------8----|
|--------------------|------4--6----6--|
|--------------------|-----------------|

  +E  E +E. S +E. S +S  E.   S E. +E  E +E  E Q
|-----4-(4)----------------|---4--(4)------------|
|-----------------8-(8)----|----------------8----|
|-(6)-------6-(6)-------6--|----------6-(6)---6--|
|--------------------------|---------------------|

  E S S +S  S E H      Q  Q  E E +S  S E
|-4---3-(3)----------|-------3---------4--|
|-----------1--------|----1----1-(1)------|
|--------------------|--------------------|
|--------------------|--------------------|

  +E. S +E  S S +S  Q  E.   +E  E +E  E E. S +Q
|-(4)------------------4--|-(4)------------4-(4)--|
|-------------8-(8)-------|-----------8-----------|
|-----6-(6)---------6-----|-----6-(6)---6---------|
|-------------------------|-----------------------|

  S E. +S  E S +E  E +Q     Q  E E +S  E. +E  S S
|------------------4-(4)--|------------4--(4)------|
|----------8--------------|----8-------------------|
|---6--(6)---6-(6)--------|-6----6-(6)----------6--|
|-------------------------|------------------------|

  +E. S +S  E. Q  +S  S E   +S  S S S +E  S S +Q   S E.
|--------------4--(4)-----|-----------------4-(4)-------|
|-----8-(8)---------------|-------8---------------------|
|-(6)-------6-----------6-|-(6)-----6-(6)------------6--|
|-------------------------|-----------------------------|

  +S  S E +S  S E E E E. S
|--------------------------|
|-----8---------8----------|
|-(6)---6-(6)-----6------9-|
|---------------------7----|

  +S  E. +S  E. +E  S S +E  E   Q  Q  +S  S E +S  E S
|-----------------------------|-----------------------|
|------------5--(5)-----------|----5--(5)-------------|
|-(9)-----------------------9-|-------------------9---|
|-----7--(7)----------7-(7)---|-7-----------7-(7)---7-|

  +E. S +Q   S E. E E   +S  S E E. S +E. S +S  E.
|---------------------|---------------------------|
|-----5-(5)-----------|-------5----------8-(8)----|
|-----------------9---|------------6-(6)-------6--|
|-(7)----------7----7-|-(7)-----7-----------------|

  +S  E. +E  E +S  S E Q    Q  +S  E. +S  E S +E  S S   +Q   Q  E E +S  S S S
|-----4--(4)--------------|-4--(4)------------------4-|-(4)---------------4----|
|--------------------8----|---------------8-----------|---------8--------------|
|-(6)--------6-(6)-----6--|--------6--(6)---6-(6)-----|------6----6-(6)-----6--|
|-------------------------|---------------------------|------------------------|

  +S  E S +Q   S S E Q    E E +Q   S S E S E.
|-----------------------|---------------------|
|-------4-(4)----3------|---4-(4)--3----------|
|-(6)-------------------|------------------4--|
|-----------------------|---------------------|

  +S  Q  E S +E  E +Q     Q  E E +S  E. +E  S S
|----------------4-(4)--|------------4--(4)------|
|--------8--------------|----8-------------------|
|-(4)-6----6-(6)--------|-6----6-(6)----------6--|
|-----------------------|------------------------|

  +e. S q  e E E S S
|----------4---3--------*|
|-----8----------1------*|
|-(6)---6---------------*|
|-----------------------*|
Login or Register to remove this ad.