Ads

Missionary Song (Black & White) Guitar Tab

Submitted: Jun 07, 2008 by Freekepeek (Last updated: Nov 01, 2014)

3.75
Average: 3.8 (4 votes)
Download | Listen
Game: Black & White
Composer(s): Russel Shaw
Style: Transcription

AutoScroll: Slow | Medium | Fast
E|-------------------------------------------------------
B|-13-----10--13--13--10----------------11-10------------
G|------------------------10--1010--12--------12-10-9----
D|----------------------------------------------------10-
A|-------------------------------------------------------
E|-------------------------------------------------------

E|-------------------------------------------------------
B|--------------------------------10-10------------------
G|-------------10------12--9--10-------------------------
D|-1010--8--12-----10--------------------10--------------
A|-------------------------------------------------------
E|-------------------------------------------------------

E|-------------------------------------------------------
B|--------10--13--13--10----------------11-10------------
G|-12-12------------------10--1010--12--------12-10-9----
D|----------------------------------------------------10-
A|-------------------------------------------------------
E|-------------------------------------------------------

E|-------------------------------------------------------
B|-------------------------------------------------------
G|-------------10------12--9--10--14--12--10-------------
D|-1010--8--12-----10------------------------------------
A|-------------------------------------------------------
E|-------------------------------------------------------


Aidelaidelee etc....

E|-10--6-10-6------8--5-8-5-----8-------------------------------
B|------------6-------------6-----12-12-12----10-12-13-13-13----
G|-----------------------------------------12-------------------
D|-----------------------------------------------------------10-
A|--------------------------------------------------------------
E|--------------------------------------------------------------
Login or Register to remove this ad.

3 comments on Missionary Song

Glorious!

5

I clicked Black and White out of curiosity, I couldn't think of any memorable music from the game. Then when I saw this I kicked myself so hard I'll need to get a strap if I want to play it anytime soon. How could I forget these guys?

Good job, thanks for the tabs.

I made an account just to

1

I made an account just to warn people about how wrong this tab is.
It's supposed to be that song those guys sing behind the creature gate on the first island "Oh, we're not keen on sinking, that's why we've been athinking"
The only section of the song that sounds at all correct is the end, the rest, I really have no idea what you thought you were playing or how out of tune your instrument was when you wrote this..

It's actually not too bad.

It's actually not too bad. The only mistakes I noticed were the two D10s at the beginning of the third staff should be G12 and the B8 in the last staff should be B6.