Ads

Main Theme (Paperboy) Bass Tab

Submitted: Jan 27, 2011 by auriplane (Last updated: Jan 27, 2011)

0
Download | Listen
Game: Paperboy
Composer(s): Hal Canon
Style: Transcription

AutoScroll: Slow | Medium | Fast
                Paperboy (Arcade) - Main Theme BASS TAB
                          Composed by Hal Canon

                Tabbed by Auriplane ([email protected])


When you get to part B, shift up two frets after the 5s, if that's
not obvious.  (Same thing when it repeats; shift down after the 8s.)

Four-string bass, standard tuning.  



        Part A

G |--------------------------------|--------------------------------|
D |------------5---8-----8---8-5---|--------------------------5-----|
A |--------------------------------|8-8---------6---8-8---8-----6---|
E |8-8-----------------------------|--------------------------------|
                                                                    
                                                                    
G |--------------------------------|--------------------------------|
D |------------5---8-----8---8-5---|--------------------------------|
A |--------------------------------|8-8---------6---8-8---8---8-7---|
E |8-8-----------------------------|--------------------------------|


G |----------------5-----5---5-----|------------5---8-8---8---8-5---|
D |------------8---------------8---|--------------------------------|
A |6-------------------------------|8-------------------------------|
E |--------------------------------|--------------------------------|
                                                                    
                                                                    
G |----------------5-----5---5-----|--------------------------------|    
D |------------8---------------8---|--------5-------6-------7-------|    
A |6-------------------------------|8-------------------------------|    
E |--------------------------------|--------------------------------|    


        Part B

G |--------------------------------|--------------------------------|
D |------------7---10----10--10-7--|---------------------------7----|
A |5-5-----------------------------|10-10-------8---10-10--10----8--|
E |--------------------------------|--------------------------------|


G |--------------------------------|--------------------------------|
D |------------7---10----10--10-7--|--------------------------------|
A |--------------------------------|10------10--------------9-------|
E |10-10---------------------------|----------------9---------------|



Login or Register to remove this ad.

2 comments on Main Theme

Paperboy! According to this,

Paperboy!

According to this, Hal Cannon composed it http://vgmdb.net/album/737

Thank you!!

Thank you!!