Ads

Reminisce (Pandora Hearts) Guitar Tab

Submitted: Jun 24, 2012 by hslesperance (Last updated: Aug 10, 2012)

4.833335
Average: 4.8 (6 votes)
Download | Listen
Game: Pandora Hearts
Composer(s): Yuki Kajiura
Style: Fingerstyle, Transcription

AutoScroll: Slow | Medium | Fast
Reminisce
Pandora Hearts
Composed by Yuki Kajiura
Tabbed by hslesperance
6/23/12

Standard Tuning

Hold out bass notes according to the audio file


   E E E E E E   Q  Q  Q     E E Q   Q    E E Q  Q
|-^3-2-0-2-3-5-|-2--2-----|-^0-2-0------|-----------|
|-^0-----------|-------3--|---------^3--|-0------0--|
|--------------|----------|-^0------^2--|-----0-----|
|--------------|----------|---------^0--|---0-------|
|--------------|-2--------|-^3----------|-----------|
|-^0-----------|----------|-------------|-3---------|


  E E E E E E   E E Q  Q    E E Q  Q    E E Q   Q
|-3-2-0-2-3-5-|-2---2-----|-0---3--5--|-7---7--^5---|
|-------------|--------3--|-----------|-------------|
|-------------|---2-------|---5-------|---7---------|
|-------------|-----------|-----------|-5------^4---|
|-------------|-2---------|-3---------|-------------|
|-0-----------|-----------|-----------|-------------|


  E E E E E E   E E Q  Q     E E Q   Q    E E Q  Q
|-3-2-0-2-3-5-|-2---2-----|-^0-2-0------|------------|
|-------------|--------3--|---------^3--|-0------0---|
|-------------|---2-------|-^0------^2--|-----0------|
|-2-----------|-----------|---------^0--|---0--------|
|-------------|-2---------|-^3----------|------------|
|-------------|-----------|-------------|-3----------|

                H.=H
   E E Q.   E   E E Q  Q    E E E E E E    H.
|-^0-2-3----5-|-2-3-2-----|-0---------0-|--------*|
|-^1----------|--------3--|---------0---|--------*|
|-------------|-----------|-------2-----|-^0-----*|
|-------------|-----------|-----2-------|--------*|
|-^0----------|-2---------|---2---------|-^2-----*|
|-------------|-----------|-0-----------|-^0-----*|

W - whole
H - half
Q - quarter
E - 8th
S - 16th
+ - note tied to previous
. - note dotted
Login or Register to remove this ad.

2 comments on Reminisce

yes

5

Beautiful tab, Bravo C:

Good job

5

Very reminiscent of "you are my love" but still a good tune, great tab!