Ads

I R Sam (Pajama Sam 3) Bass Tab

Submitted: Aug 09, 2021 by Megaman1811 (Last updated: Aug 09, 2021)

0
Download | Listen
Game: Pajama Sam 3
Composer(s): The Fat Man, Team Fat
Style: Transcription
Series: Pajama Sam

This song is also called Sam's house

AutoScroll: Slow | Medium | Fast
Title: I R Sam
Artist: George Sanger
Album: Pajama Sam 3 Remastered Soundtrack
Tabbed by: UnixNight 

Purchase the album here: https://thefatmanandteamfat.bandcamp.com/album/pajama-sam-3-remastered-s...

Tried my best with this as this was my first time tabbing something by ear. Please let me know if it can be improved!


Track 1: Bass

G|-------------|-----------------------|-------------|-----------------|-------------|
D|-------------|-----------------------|-------------|-----------------|-------------|
A|-------3-----|-5-----5---7---5---7---|-------3-----|-5---------------|-------3-----|
E|-5-----------|-----------------------|-5-----------|-------3----4----|-5-----------|


G|-----------------|-------9-----|---------------------|-------------|-------------|
D|-------3----3----|-------------|---------------------|-------------|-------------|
A|-5---------------|-7-----------|-7----5----3---------|-------3-----|-5-----7-----|
E|-----------------|-------------|----------------7----|-5-----------|-------------|


G|-------------|-----------------|--------------------|-------------|---------------------------------|
D|-------------|-----------------|--------------------|-------3-----|---------------------------------|
A|-------3-----|-5---------------|-------3----3---3---|-5-----------|-6---7---6---7---6---7---6---7---|
E|-5-----------|-------3----4----|-5------------------|-------------|---------------------------------|


G|---------------------|--------|--------|--------|--------|--------|--------|---------------------|
D|---------------------|--------|--------|--------|--------|--------|--------|---------------------|
A|-7-------------------|--------|--------|--------|--------|--------|--------|-7---------7---------|
E|------0----0----0----|--------|--------|--------|--------|--------|--------|------0---------0----|


G|---------------------|-------------|-----------------------|-------------|-----------------|
D|---------------------|-------------|-----------------------|-------------|-----------------|
A|-7-------------------|-------3-----|-5-----5---7---5---7---|-------3-----|-5---------------|
E|------0----0----0----|-5-----------|-----------------------|-5-----------|-------3----4----|


G|-------------|-------------|---------------------------------|---------------------------------|
D|-------------|-------3-----|---------------------------------|---------------------------------|
A|-------3-----|-5-----------|-6---7---6---7---6---7---6---7---|-6---7---6---7---6---7---6---7---|
E|-5-----------|-------------|---------------------------------|---------------------------------|


G|-------------|-------------|-------------|-----------------------|-------------|
D|-------------|-------------|-------------|-----------5-------6---|-------------|
A|-------3-----|-5-----7-----|-------3-----|-5---------------------|-------3-----|
E|-5-----------|-------------|-5-----------|-------3-------4-------|-5-----------|


G|-------------|---------------------------|---------------------------|-----------------|
D|-------3-----|---------------------------|---------------------------|-----------------|
A|-5-----------|-6---7--------6---7--------|-7---7---5---5---3---------|-------3---------|
E|-------------|---------0------------0----|----------------------7----|-5----------3----|


G|-----------------|-----------------|-----------------|-----------------|-----------------|
D|-----------------|-----------------|-----------------|-----------------|-----------------|
A|-------3---------|-------3---------|-------3---------|-------3---------|-------3---------|
E|-5----------3----|-5----------3----|-5----------3----|-5----------3----|-5----------3----|


G|-----------------|-----------------|-----------------|--------|
D|-----------------|-----------------|-----------------|--------|
A|-------3---------|-------3---------|-------3---------|--------|
E|-5----------3----|-5----------3----|-5----------3----|-5------|



Login or Register to remove this ad.

1 comment on I R Sam

this is really so nice

this is really so nice vidmate mobdro