Splash Wave (Outrun) Bass/Guitar Tab

Submitted: May 11, 2012 by manyth

5
Average: 5 (1 vote)
Download | Listen
Game: Outrun
Composer(s): Hiroshi Miyauchi
Style: 2 or more instruments, Transcription

AutoScroll: Slow | Medium | Fast
Splash Wave
Outrun

Manyth
May 10. 2012


Guitar 1

     E   E   E  E   E   E  E   E      E  E   E   E  E   E   E   E   
E||---------12---------12---------|--12---------12---------12------|
B||-----12---------12---------12--|---------12---------12------12--|
G||--9----------9----------9------|------9----------9--------------|
D||-------------------------------|--------------------------------|
A||-------------------------------|--------------------------------|
E||-------------------------------|--------------------------------|


  E   E   E  E   E   E  E   E      E  E   E   E  E   E  E   E   
---------10---------10---------|--10---------10---------8--10--|
-----10---------10---------10--|---------10---------10---------|
--7----------7----------7------|------7----------7-------------|
-------------------------------|-------------------------------|
-------------------------------|-------------------------------|
-------------------------------|-------------------------------|


  E   E   E  E   E   E  E   E      E  E   E   E  E   E   E   E   
---------12---------12---------|--12---------12---------12------|
-----12---------12---------12--|---------12---------12------12--|
--9----------9----------9------|------9----------9--------------|
-------------------------------|--------------------------------|
-------------------------------|--------------------------------|
-------------------------------|--------------------------------|


  E   E   E  E   E   E  E   E      E  E   E   E  E   E  E   E   
---------10---------10---------|--10---------10---------8--10--|
-----10---------10---------10--|---------10---------10---------|
--7----------7----------7------|------7----------7-------------|
-------------------------------|-------------------------------|
-------------------------------|-------------------------------|
-------------------------------|-------------------------------|


  E   E   E  E   E   E  E   E      E  E   E   E  E   E   E   E   
---------12---------12---------|--12---------12---------12------|
-----12---------12---------12--|---------12---------12------12--|
--9----------9----------9------|------9----------9--------------|
-------------------------------|--------------------------------|
-------------------------------|--------------------------------|
-------------------------------|--------------------------------|


  E   E   E  E   E   E  E   E      E  E   E   E  E   E  E   E   
---------10---------10---------|--10---------10---------8--10--|
-----10---------10---------10--|---------10---------10---------|
--7----------7----------7------|------7----------7-------------|
-------------------------------|-------------------------------|
-------------------------------|-------------------------------|
-------------------------------|-------------------------------|


  E   E   E  E   E   E  E   E      E  E   E   E  E   E   E   E   
---------12---------12---------|--12---------12---------12------|
-----12---------12---------12--|---------12---------12------12--|
--9----------9----------9------|------9----------9--------------|
-------------------------------|--------------------------------|
-------------------------------|--------------------------------|
-------------------------------|--------------------------------|


  E  E  E  E  E  E     E   E   E  E   E   E            H.           E  E   
--------8--------9--|---------10---------11--|-----|-------------------8--|
-----8--------9-----|-----10---------11------|-----|----------------8-----|
--5--------6--------|--7----------8----------|-----|--/7------------------|
--------------------|------------------------|-----|----------------------|
--------------------|------------------------|-----|----------------------|
--------------------|------------------------|-----|----------------------|


  Q    Q    E  Q    E     W                    Q     Q     E   Q      E   
--L----7----5--7-------|-------------------|--13----12----10--12---------|
--------------------6--|--L----------------|------------------------/12--|
-----------------------|-------------------|-----------------------------|
-----------------------|-------------------|-----------------------------|
-----------------------|-------------------|-----------------------------|
-----------------------|-------------------|-----------------------------|


  W                   Q    Q     E   Q     E     H        Q    Q     
-------------------|--------------------------|---------------------|
--L----------------|------------15--13----12--|--L--------L----8----|
-------------------|--------------------------|---------------------|
-------------------|--------------------------|---------------------|
-------------------|--------------------------|---------------------|
-------------------|--------------------------|---------------------|


  H.           E   E       W                   E   E  E   E   E   Q     E   
----------------------|---------------------|------------------------------|
----------------------|---------------------|----------------13--12----10--|
--9------------Ls--0--|--/10----------------|-----10-----14----------------|
----------------------|---------------------|------------------------------|
----------------------|---------------------|------------------------------|
----------------------|---------------------|------------------------------|


  E   E  H.              Q     Q     Q     Q        W                 
----------------------|-------------------------|--------------------|
----------------------|-------------12----10----|--11----------------|
-----12--9------------|--L----12----------------|--------------------|
----------------------|-------------------------|--------------------|
----------------------|-------------------------|--------------------|
----------------------|-------------------------|--------------------|


  Q    Q    Q     Q        H        E   Q     E      H         Q     Q      
-----------------11----|--10--------L--15----14--|---L--------14s----0----||
-----------------------|-------------------------|------------------------||
-----------------------|-------------------------|------------------------||
-----------------------|-------------------------|------------------------||
-----------------------|-------------------------|------------------------||
-----------------------|-------------------------|------------------------||




Guitar 2

     E  E  E  E  E  E  E  E     E  E  E  E  E  E  E  E   
E||--------------------------|--------------------------|
B||--------------------------|--------------------------|
G||--------------------------|--------------------------|
D||--9-----------------------|--9-----------------------|
A||--7-----------------------|--7-----------------------|
E||--------------------------|--------------------------|


  E  E  E  E  E  E  E  E     E  E  E  E  E  E  E  E   
--------------------------|--------------------------|
--------------------------|--------------------------|
--------------------------|--------------------------|
--7-----------------------|--7-----------------------|
--5-----------------------|--5-----------------------|
--------------------------|--------------------------|


  E  E  E  E  E  E  E  E     E  E  E  E  E  E  E  E   
--------------------------|--------------------------|
--------------------------|--------------------------|
--------------------------|--------------------------|
--------9--------9--------|--9--------9--------9-----|
--7--7--7--7--7--7--7--7--|--7--7--7--7--7--7--7--7--|
--------------------------|--------------------------|


  E  E  E  E  E  E  E  E     E  E  E  E  E  E  E  E   
--------------------------|--------------------------|
--------------------------|--------------------------|
--------------------------|--------------------------|
--------7--------7--------|--7--------7--------7-----|
--5--5--5--5--5--5--5--5--|--5--5--5--5--5--5--5--5--|
--------------------------|--------------------------|


  E  E  E  E  E  E  E  E     E  E  E  E  E  E  E  E   
--------------------------|--------------------------|
--------------------------|--------------------------|
--------------------------|--------------------------|
--------9--------9--------|--9--------9--------9-----|
--7--7--7--7--7--7--7--7--|--7--7--7--7--7--7--7--7--|
--------------------------|--------------------------|


  E  E  E  E  E  E  E  E     E  E  E  E  E  E  E  E   
--------------------------|--------------------------|
--------------------------|--------------------------|
--------------------------|--------------------------|
--------7--------7--------|--7--------7--------7-----|
--5--5--5--5--5--5--5--5--|--5--5--5--5--5--5--5--5--|
--------------------------|--------------------------|


  E  E  E  E  E  E  E  E     E  E  E  E  E  E  E  E     E  E  E  E  E  E   
--------------------------|--------------------------|--------8--------9--|
--------------------------|--------------------------|-----8--------9-----|
--------------------------|--------------------------|--5--------6--------|
--------9--------9--------|--9--------9--------9-----|--------------------|
--7--7--7--7--7--7--7--7--|--7--7--7--7--7--7--7--7--|--------------------|
--------------------------|--------------------------|--------------------|


                                 PM PM PM PM PM PM PM PM  
  E   E   E  E   E   E           E  E  E  E  E  E  E  E   
---------10---------11--|-----|--------------------------|
-----10---------11------|-----|--------------------------|
--7----------8----------|-----|--------------------------|
------------------------|-----|--------------------------|
------------------------|-----|--5--5--5--5--5--5--5--5--|
------------------------|-----|--------------------------|


  PM PM PM PM PM PM PM PM    PM PM PM PM PM PM PM PM  
  E  E  E  E  E  E  E  E     E  E  E  E  E  E  E  E   
--------------------------|--------------------------|
--------------------------|--------------------------|
--------------------------|--------------------------|
--------------------------|--------------------------|
--5--5--5--5--5--5--5--5--|--8--8--8--8--8--8--8--8--|
--------------------------|--------------------------|


  PM PM PM PM PM PM PM PM    PM PM PM PM PM PM PM PM  
  E  E  E  E  E  E  E  E     E  E  E  E  E  E  E  E   
--------------------------|--------------------------|
--------------------------|--------------------------|
--------------------------|--------------------------|
--------------------------|--------------------------|
--8--8--8--8--8--8--8--8--|--3--3--3--3--3--3--3--3--|
--------------------------|--------------------------|


  PM PM PM PM PM PM PM PM    PM PM PM PM PM PM PM PM  
  E  E  E  E  E  E  E  E     E  E  E  E  E  E  E  E   
--------------------------|--------------------------|
--------------------------|--------------------------|
--------------------------|--------------------------|
--------------------------|--------------------------|
--3--3--3--3--3--3--3--3--|--------------------------|
--------------------------|--3--3--3--3--3--3--3--3--|


  PM PM PM PM PM PM PM PM    PM PM PM PM PM PM PM PM  
  E  E  E  E  E  E  E  E     E  E  E  E  E  E  E  E   
--------------------------|--------------------------|
--------------------------|--------------------------|
--------------------------|--------------------------|
--------------------------|--------------------------|
--------------------------|--------------------------|
--3--3--3--3--3--3--3--3--|--1--1--1--1--1--1--1--1--|


  PM PM PM PM PM PM PM PM    PM PM PM PM PM PM PM PM  
  E  E  E  E  E  E  E  E     E  E  E  E  E  E  E  E   
--------------------------|--------------------------|
--------------------------|--------------------------|
--------------------------|--------------------------|
--------------------------|--------------------------|
--------------------------|--------------------------|
--1--1--1--1--1--1--1--1--|--0--0--0--0--0--0--0--0--|


  PM PM PM PM PM PM PM PM    PM PM PM PM PM PM PM PM  
  E  E  E  E  E  E  E  E     E  E  E  E  E  E  E  E   
--------------------------|--------------------------|
--------------------------|--------------------------|
--------------------------|--------------------------|
--------------------------|--------------------------|
--------------------------|--1--1--1--1--1--1--1--1--|
--0--0--0--0--0--0--0--0--|--------------------------|


  PM PM PM PM PM PM PM PM    PM PM PM PM PM PM PM PM  
  E  E  E  E  E  E  E  E     E  E  E  E  E  E  E  E   
--------------------------|--------------------------|
--------------------------|--------------------------|
--------------------------|--------------------------|
--------------------------|--------------------------|
--1--1--1--1--1--1--1--1--|--0--0--0--0--0--0--------|
--------------------------|--------------------3--3--|


  PM PM PM PM PM PM PM PM   
  E  E  E  E  E  E  E  E    
--------------------------||
--------------------------||
--------------------------||
--------------------------||
--0--0--0--0--0--0--3--3--||
--------------------------||




Bass

     E  E  E  E  E  E  E  E     E  E  E  E  E  E  E  E   
G||--------------9-----------|--------------9-----------|
D||--------9--------9--------|-----9-----------9-----9--|
A||--7--------------------7--|-----------7--------7-----|
E||--------------------------|--------------------------|


  E  E  E  E  E  E  E  E     E  E  E  E  E  E  E  E   
--------------7-----------|--------------7-----------|
--------7--------7--------|-----7-----------7-----7--|
--5--------------------5--|-----------5--------5-----|
--------------------------|--------------------------|


  E  E  E  E  E  E  E  E     E  E  E  E  E  E  E  E   
--------------9-----------|--------------9-----------|
--------9--------9--------|-----9-----------9-----9--|
--7--------------------7--|-----------7--------7-----|
--------------------------|--------------------------|


  E  E  E  E  E  E  E  E     E  E  E  E  E  E  E  E   
--------------7-----------|--------------7-----------|
--------7--------7--------|-----7-----------7-----7--|
--5--------------------5--|-----------5--------5-----|
--------------------------|--------------------------|


  E  E  E  E  E  E  E  E     E  E  E  E  E  E  E  E   
--------------9-----------|--------------9-----------|
--------9--------9--------|-----9-----------9-----9--|
--7--------------------7--|-----------7--------7-----|
--------------------------|--------------------------|


  E  E  E  E  E  E  E  E     E  E  E  E  E  E  E  E   
--------------7-----------|--------------7-----------|
--------7--------7--------|-----7-----------7-----7--|
--5--------------------5--|-----------5--------5-----|
--------------------------|--------------------------|


  E  E  E  E  E  E  E  E     E  E  E  E  E  E  E  E     E   E   E  E   E   E   
--------------9-----------|--------------9-----------|------------------------|
--------9--------9--------|-----9-----------9-----9--|---------10---------11--|
--7--------------------7--|-----------7--------7-----|-----10---------11------|
--------------------------|--------------------------|--8----------9----------|


   E   E   E   E   E   E           E  E  E  E  E  E  E  E   
--------------------------|-----|-----7-----7-----7-----7--|
----------12----------13--|-----|--------------------------|
------12----------13------|-----|--5-----5-----5-----5-----|
--10----------11----------|-----|--------------------------|


  E  E  E  E  E  E  E  E     E   E  E   E  E   E  E   E   
-----7-----7-----7-----7--|-----10-----10-----10-----10--|
--------------------------|------------------------------|
--5-----5-----5-----5-----|--8------8------8------8------|
--------------------------|------------------------------|


  E   E  E   E  E   E  E   E     E  E  E  E  E  E  E  E   
-----10-----10-----10-----10--|-----5-----5-----5-----5--|
------------------------------|--------------------------|
--8------8------8------8------|--3-----3-----3-----3-----|
------------------------------|--------------------------|


  E  E  E  E  E  E  E  E     E  E  E  E  E  E  E  E   
-----5-----5-----5-----5--|--------------------------|
--------------------------|-----5-----5-----5-----5--|
--3-----3-----3-----3-----|--------------------------|
--------------------------|--3-----3-----3-----3-----|


  E  E  E  E  E  E  E  E     E  E  E  E  E  E  E  E   
--------------------------|--------------------------|
-----5-----5-----5-----5--|-----3-----3-----3-----3--|
--------------------------|--------------------------|
--3-----3-----3-----3-----|--1-----1-----1-----1-----|


  E  E  E  E  E  E  E  E     E  E  E  E  E  E  E  E   
--------------------------|--------------------------|
-----3-----3-----3-----3--|-----2-----2-----2-----2--|
--------------------------|--------------------------|
--1-----1-----1-----1-----|--0-----0-----0-----0-----|


  E  E  E  E  E  E  E  E     E  E  E  E  E  E  E  E   
--------------------------|--------------------------|
-----2-----2-----2-----2--|-----8-----8-----8-----8--|
--------------------------|--------------------------|
--0-----0-----0-----0-----|--6-----6-----6-----6-----|


  E  E  E  E  E  E  E  E     E  E  E  E  E  E  E  E   
--------------------------|-----2-----2-----2--------|
-----8-----8-----8-----8--|--------------------------|
--------------------------|--0-----0-----0-----------|
--6-----6-----6-----6-----|--------------------3--3--|


  E  E  E  E  E  E  E  E    
-----2-----2-----2--------||
--------------------------||
--0-----0-----0-----3--3--||
--------------------------||
Login or Register to remove this ad.

1 comment on Splash Wave

Great, but needs the other

Great, but needs the other half!