Ads

Main Theme (Ori and the Blind Forest) Guitar Tab

Submitted: Dec 22, 2020 by Emi (Last updated: Dec 27, 2020)

0
Download | Listen
Game: Ori and the Blind Forest
Composer(s): Gareth Coker
Style: Arrangement, Fingerstyle

Click here for a video example.

AutoScroll: Slow | Medium | Fast
Title: Ori And The Blind Forest
SubTitle: Main Theme
Composer: Gareth Coker
Arranged for Guitar by Emilien Delcour
Tempo = 100


(Video demonstration here : https://youtu.be/DrQiN2sR1HI )


Legend
L - tied note
h - hammer on/pull off
t - trill
v - brush up
^ - brush down

                                                             
E ||---------------------------|----------------------------|
B ||-1-----------0-------------|----------------------------|
G ||o------2-----------2-------|--0-------------------------|
D ||o---2-----2-----2-----0----|-----------0h-2-------------|
A ||-0-----------3-----2-------|-----0h-2-------------------|
E ||---------------------------|--3-------------------------|

                                                          
----------------------------|--------------0-------------|
--1-----------0-------------|--0--------0----------------|
--------2-----------2-------|--------2-----------0-------|
-----2-----2-----2-----0----|-----2-----------4----------|
--0-----------3-----2-------|--2--------------------3----|
----------------------------|----------------------------|

                                           v              
----------------------------|----------------------------|
--1-----------0-------------|----------------------------|
--------2-----------2-------|--0-------------------------|
-----2-----2-----2-----0----|-----------0--2h------------|
--0-----------3-----2-------|-----0h-2-----2-------------|
----------------------------|--3-----------3-------------|

                                                          
----------------------------|----------------------------|
----------------------------|----------------------------|
----------------------------|----------------------------|
--0-------------------------|-----------------------5----|
--------------------2--2t---|--0L----------0--7--8-------|
----------------------------|----------------------------|

                                           ^              
--8-----------7-----5-------|----------------------------|
--------5--------------5----|--8--------8--5-------------|
-----5-----5-----5----------|--------5-----5-------------|
--7-----------5-------------|-----5--------5-------------|
----------------------------|--7-----------0-------------|
----------------------------|----------------------------|

                                                                           
--8-----------7-----5-------|--7-----12------|--8-----------7-----5-------|
--------5--------------5----|----------------|--------5--------------5----|
-----5-----5-----5----------|----------------|-----5-----5-----5----------|
--7-----------5-------------|----------------|--7-----------5-------------|
----------------------------|--7-------------|----------------------------|
----------------------------|-----0----------|----------------------------|

     ^       ^                                                  
----------|----------------------------------------------------|
--8--5----|--3-----------------------------------0-----1h-0----|
-----5----|--4-------------------------------------------------|
-----5----|--5-----------------------------------0-----2h-0----|
--7--0----|--0-------------------------------------------------|
----------|----------------------------------------------------|

                               ^                            ^
-----------------------0----|--1-----------------0-------|--0--5----|
--------------------3-------|--3--------------------3----|--0-------|
--2L----------2-----2-------|--2-------------------------|--0-------|
-----------------3----------|--3-------------------------|--2-------|
--3L----------3-------------|--0-------------------------|--3-------|
----------------------------|----------------------------|----------|


--5-----------5-----5-------|--7----|--5-----------5-------------|
--------5-------------------|-------|--------5-----------5-------|
-----------2----------------|-------|--------5-----------7-------|
-----2----------------------|-------|-----7-----------7----------|
--0--------------0----------|-------|--0--------0--0--------0----|
-----------------------0----|-------|----------------------------|


--5-------------------------|--5-----------5-------------|
--------5-------------------|--------5-----------5-------|
--------5-----2-------------|--------5-----------7-------|
-----7--------2-------------|-----7-----------7----------|
--0--------0----------------|--0--------0--0--------0----|
----------------------------|----------------------------|


--5------------------------||--5-----------5-------------|
--------5------------------||--------5-----------5-------|
--------5-----2-----------o||--------5-----------5-------|
-----7--------2-----------o||-----7-----------7----------|
--0--------0---------------||--0-----7-----0-----8-------|
---------------------------||----------------------------|


--5-------------------------|--5-----------5-------------|
--------5-------------------|--------5-----------5-------|
--------5-----2-------------|--------5-----------5-------|
-----7--------2-------------|-----7-----------7----------|
--0-----7-----0-------------|--0-----7-----0-----8-------|
----------------------------|----------------------------|


--5-------------------------||
--------5-----10------------||
--------5-----9-------------||
-----7--------10------------||
--0-----7-----0-------------||
----------------------------||

Login or Register to remove this ad.