Ads

We Are (One Piece) Guitar Tab

Submitted: Jan 07, 2012 by JordanVS

5
Average: 5 (7 votes)
Download | Listen
Game: One Piece
Composer(s): Shiro Hamaguchi
Style: Arrangement, Fingerstyle

AutoScroll: Slow | Medium | Fast
We Are-One Piece                                 
First Opening
Hiroshi Kitadani
 

	
    *Capo on 3rd fret



     E  E  E  E  E  E  E  E     E  E  E  E  E  E  Q     
E||-----1--1--1-----------0--|-------------------------|
B||-----3--3--3-----3-----1--|-----1-----3-----1--3----|
G||-----2--2--3-----3-----0--|-----2-----3-----2--3----|
D||-----------3--------------|-----------3--------3----|
A||--1-----L--1-----1-----3--|-----3-----------3-------|
E||--------------------------|-------------------------|


  E  E  E  E  E  E  E  E     E  E  E  E  E  E  E  E   
--0-----------------------|--------------------------|
--1-----------------------|--------------------------|
--0--0-----0-----0-----0--|-----0-----0-----0-----0--|
--2-----2-----------2-----|--------3-----2-----------|
--3-----------------------|--3-----------------3-----|
--------------3-----------|--------------------------|


  E  E  E  E  E  E  E  E     E  E  E  E  E  E  Q       Q    E  Q    E  Q     
-----1--1--1-----------0--|-------------------------|-----------------------|
-----3--3--3-----3-----1--|-----1-----3-----1--3----|----------1-------4----|
-----2--2--3-----3-----0--|-----2-----3-----2--3----|--2-------1-------4----|
-----------3--------------|-----------3--------3----|--3--------------------|
--1-----L--1-----1-----3--|-----3-----------3-------|----------1----1--4----|
--------------------------|-------------------------|--3----3---------------|


                    ^                                                    
  E  Q    E  Q.     E     H        E  E  E  E      Q    Q    Q    E  E   
--------------------3--|--L--------L-----------|---8--------------------|
-----3-------1------3--|--L--------L-----------|---8--------------------|
-----3-------1------4--|--L--------L-----------|---9----5----3-------3--|
--------------------5--|--L--------L-----------|--10----5----3----3-----|
--4--3----3--1------5--|--L--------L-----------|--10----7----5----------|
--------------------3--|--L--------L--3--3--3--|---8--------------------|


  E  E  E  Q    E  E  E     Q    E  E  Q    E  E     E  E  E  Q    E  Q     
-------------------------|------------------------|------------------------|
-------------------------|------------------------|------------------------|
--1-----1--3----1--3--5--|--L----5--L--3-------3--|--1-----1--3----1--0----|
--1--1-----3----1--3--5--|--L----5--L--3----3-----|--1--1-----3-------0----|
--3--------5----3--5--7--|--L----7--L--5----------|--3--------5-------2----|
-------------------------|------------------------|------------------------|


  Q    E  E  Q    E  E     E  E  E  Q    E  E  E     Q    Q    Q    Q     
------------------------|-------------------------|----------------------|
------------------------|-------------------------|----------------------|
--L----5--L--3-------3--|--1-----1--3----1--3--5--|----------------------|
--L----5--L--3----3-----|--1--1-----3----1--3--5--|-------2----3----5----|
--L----7--L--5----------|--3--------5----3--5--7--|-------3----3----3----|
------------------------|-------------------------|-------3----3----3----|


  E  Q    Q.     S S S S    E  Q.     Q    E  E     Q.     E  E  E  E  E   
-------------------------|-----------------------|------------------------|
-------------------------|--1--1-----------1--3--|--L---------------1--3--|
-----------------0-0---0-|--0--0------0-------0--|--L------------0--------|
--6--8----5--------------|--2--------------2--2--|--L---------3-----3-----|
----------5--------------|--3--L------3-------3--|--L------2-----L--------|
--4--6----3--------------|-----------------------|------------------------|


  E.  E.  E  E  E  E  E     E  E  Q    E  E  E  E     E  Q.     Q    E  E   
--1---0------------------|-------------------------|-----------------------|
----------1--L-----------|-------------------------|--1--1-----------1--3--|
--0-------0--L--0--------|-----5--5----0--0--0--0--|--0--0------0-------0--|
----------2--L-----2-----|-----3--3-------0--------|--2--------------2--2--|
--1-------------------1--|-----0--0----2-----------|--3--L------3-------3--|
-------------------------|-------------------------|-----------------------|


  E  E  E  E  Q    Q       E  E  E  Q    E  E  E     E  E  E  E  E  E  E  E   
--------------1----0----|-------------------------|--------------------------|
-----L--3---------------|--3--------1----L--------|--------------------3-----|
-----L-----0------------|-------------------------|--------------------4--0--|
--------3-----2---------|-----2----------2--------|--------0-----------0-----|
--L--2-------------2----|--0-----3--0-------3-----|-----0-----0-----2--------|
------------------------|----------------------3--|--2-----------3-----------|


  Q    E  E  Q    E  E     E  E  E  Q    E  E  E     Q    Q    Q    E  E   
--0---------------------|-------------------------|-----------------------|
--1---------------------|-------------------------|-----------------------|
--0----5--L--3-------3--|--1-----1--3----1--3--5--|--L----5----3-------3--|
--2----5--L--3----3-----|--1--1-----3----1--3--5--|--L----5----3----3-----|
--3----7--L--5----------|--3--------5----3--5--7--|--L----7----5----------|
------------------------|-------------------------|-----------------------|


  Q.     Q    E  Q       Q    E  E  E  E  E  E     Q    E  E  E  E  E  E   
----------------------|-------------------------|--0----L-----------------|
----------------------|-------------------------|--1----L-----------------|
--1------3------------|--0----------------------|--0----L-----------0-----|
--1------3----6--5----|-------3--L--2--L--0--2--|--2----L--------2-----2--|
--3------1----6--5----|--3-------3--L-----------|--3----L--3--3-----------|
--------------4--3----|-------3-----L-----3-----|-------------------------|


  Q    Q    E  E  Q       Q    E  E  E  E  E  E     E.  S E  E  E  E  E  E   
-----------------------|--3----------------------|--3---3-1--1--0-----------|
-----------------------|-------------------------|--------------------3-----|
--3----2----0--L--0----|--0----3--------0--3--0--|--------0-----------0-----|
--1----1----1-----3----|--1-------1--1-----------|-----------------2-----2--|
------------------1----|-------------------------|--3--------3--3-----------|
-----------------------|-------------------------|--------------------------|


  Q    E  E  E  E  Q       Q    E  E  E  E  E  E     E.  S E  E  E  E  E  E   
------------------------|-------------3--1-----1--|--------------------------|
--1----------1-----3----|--4----------------4-----|--------------------------|
-------0----------------|-------------------------|-----------------------3--|
----------2-----2-------|----------------------3--|--------3--------0--3-----|
--3----------3-----3----|-------3-----------------|--1---1----1--1-----------|
------------------------|--1-------1--1-----------|--------------------------|


  E.  S E  E  E  E  E  E     Q    E  E  E  E  E  E     E.  S E  E  E  E  E  E   
--3---3-1--1--0-----------|-------------------------|--------------------------|
--------------------3-----|--1-------------1-----1--|--1-----1-----3-----0--1--|
--------0-----------0-----|-------0-----------0-----|--------------------------|
-----------------2-----2--|----------------2-----2--|--------------------------|
--3--------3--3-----------|--3-------3--3-----------|--------3-----------2-----|
--------------------------|-------------------------|--1---L----1--0--0-----0--|


  E.  S E  E  E  E  E  E     Q    Q    E  E  Q       Q    E  E  E  E  E  E   
--------------------------|-----------------------|-------------------------|
--------------------0-----|--1----1----0----------|-------------------------|
--------------2-----------|------------------2----|--0-------2--------------|
--------2--------2--------|-----------------------|-------------------0--2--|
--0---L----0--0-----3--0--|-------3-------3--0----|-------2-----0-----0--3--|
--------------------------|--1---------1----------|--0-------0-----0--------|


  Q    E  E  Q    E  E     Q    E  Q    E  E  E     E  E  E  E  Q    Q     
------------------------|---------------3--1-----|-----0------------------|
------------------------|---------------------3--|--L-----1---------------|
-------0----------------|-------0----------------|--------------0----2----|
--3----------2----0--0--|------------------------|------------------------|
----------0-------2-----|--3-------3----3--3--3--|-----3--3--3--3---------|
-------1-----3----------|------------------------|-------------------3----|


  Q    E  E  E  E  E  E     Q    E  Q    E  E  E     Q    E  Q    E  E  E   
-------------------------|------------------------|------------------------|
-------------3--3--------|--1-------1-------------|------------------------|
--3----------------------|---------------2--0-----|-------0----------------|
-------0-----------0-----|---------------------3--|---------------2--0--0--|
-------------------------|-------3----------3-----|--3-------3----3--------|
--3-------3-----3-----3--|--1-------1----1-----1--|------------------------|


  H        E  E  E  E     Q    E  E  E  E  E  E     Q    E  E  E  E  E  E   
-----------------------|-------------------------|----------------0-----1--|
-----------------------|-------------3--3-----2--|-------2-----3-----------|
-----------0-----2-----|--3----------------------|-------------------------|
-----------------------|-------0-----------0-----|-------2-----------2-----|
--3-----------3-----3--|-------------------------|--0-------0-----0-----0--|
-----------------------|--3-------3-----3-----3--|-------------------------|


  E.  S E  E  E  E  E  E     E  E  E  E  E  E  E  E   
--L---L-------------------|-----1--1--1--1--0--------|
--------------------------|--------------------3--1--|
--------------------------|--------------------------|
-----------0--------0--3--|--------------------------|
------L-0--------0--------|--1--1--1--1--3--3--3--3--|
--------------1-----------|--------------------------|


  E  E  E  E  E  E  E  E     E.  E.  Q.     S E  S    E  Q.     Q    E  E   
--------------------------|------------------------|-----------------------|
--3--------L--------------|--4---6---8-------------|--1--1-----------1--3--|
--------------------------|-----------------0-0--0-|--0--0------0-------0--|
--4--------L--------------|--1---3---5-------------|--2--------------2--2--|
--5--5--5--5--5--5--5--5--|------------------------|--3--L------3-------3--|
--------------------------|------------------------|-----------------------|


  Q.     E  E  E  E  E     E.  E.  E  E  E  E  E     E  E  E  E  E  E  E  E   
------------------------|--1---0------------------|--------------------------|
--L---------------1--3--|----------1--L-----------|--------------------------|
--L------------0--------|--0-------0--L--0--------|-----------------0--0--0--|
--L---------3-----3-----|----------2--L-----2-----|-----------3-----0--------|
--L------2-----L--------|--1-------------------1--|--L--0--3-----2-----------|
------------------------|-------------------------|--------------------------|


  E  Q.     Q    E  E     E  E  E  E  Q    Q       E  E  E  Q    E  E  E   
-----------------------|--------------1----0----|-------------------------|
--1--1-----------1--3--|-----L--3---------------|--3--------1----L--------|
--0--0------0-------0--|-----L-----0------------|-------------------------|
--2--------------2--2--|-----3--3-----2---------|-----2----------2--------|
--3--L------3-------3--|--2--L-------------2----|--0-----3--0-------3-----|
-----------------------|------------------------|----------------------3--|


  E  E  E  E  E  E  E  E     E  E  E  Q    E  E  E     E  E  E  E  E  E  E  E   
--------------------------|-------------------0-----|--------------------------|
-----------------1--1--1--|--1--L----------------3--|-----L-----------0--0--0--|
--------------------------|-------------------------|--------------0-----------|
-----2-----2-----2-----2--|-----------3-------------|-----0-----0-----0-----0--|
--------3-----------------|-----3--0--3----3--0--3--|--------2-----------2-----|
--3-----------3-----------|--1----------------------|--3-----------------------|


  E  E  E  E  E  E  E  E     E  E  E  E  E  E  E  E     Q    E  Q    E  E  E   
--------------------------|--------------------------|------------------------|
--0--0--0-----------------|--------------------------|------------------------|
-----------2-----0-----2--|--------------2-----------|----------5----2--------|
--2--------------------2--|-----2-----2-----2-----2--|--3----0----------3--0--|
-----2-----2--------2-----|--0-----3-----------3-----|------------------------|
--------3-----0--3--------|--------------------------|------------------------|


  Q    E  Q    E  E  E     E  E  E  E  E  E  E  E     E  H        E  Q     
------------------------|--------------------------|----------------------|
----------3----0--1--3--|--4-----------L-----------|-----------------3----|
--0-------0-------0-----|--------------------------|----------------------|
--2----2----------------|--------------------------|--3--------------3----|
------------------------|--------------------------|--1--------------1----|
---------------------0--|--1--1--1--1--1--1--1--1--|----------------------|


  W                  
-------------------||
--1----------------||
--0----------------||
-------------------||
--3----------------||
-------------------||




Duration Legend
---------------
W - whole
H - half
Q - quarter
E - 8th
S - 16th
T - 32nd
X - 64th
. - note dotted
|-n-|  - n-tuplets


Tablature Legend
----------------
L - tied note
x - dead note
g - grace note
(n) - ghost note
> - accentuded note
NH - natural harmonic
AH - artificial harmonic
TH - tapped harmonic
SH - semi harmonic
PH - pitch harmonic
h - hammer on
p - pull off
b - bend
br - bendRelease
pb - preBend
pbr - preBendRelease
brb - bendReleaseBend
\n/ - tremolo bar dip
\n - tremolo bar dive
-/n - tremolo bar Release up
/n\ - tremolo bar inverted dip
/n - tremolo bar return
-\n - tremolo bar Release down
S - shift slide
s - legato slide
/ -  slide into from below or out of upwards
\ -  slide into from above or out of downwards
~ - vibrato
W - wide vibrato
tr - trill
TP - tremolo picking
T - tapping
S - slap
P - pop
< - fade in
^ - brush up
v - brush down
Login or Register to remove this ad.

5 comments on We Are

EPIC!! Thanks man \O

EPIC!! Thanks man \O

=D

=D

Amazing arrangement of one of

5

Amazing arrangement of one of the best OP opening themes!

thanks man,i wonder why no

thanks man,i wonder why no one arranged this before

I just got into this series

5

I just got into this series and needed this tab right about now! =D

Thanks for the great work!