Mother Sea (One Piece) Ukulele Tab

Submitted: Sep 26, 2016 by Karu94

4
Average: 4 (1 vote)
Download | Listen
Game: One Piece
Composer(s): Shiro Hamaguchi
Style: Arrangement, Artificial harmonics, Fingerstyle

AutoScroll: Slow | Medium | Fast
Title: Mother Sea
Anime: One Piece
Composer: Kohei Tanaka
Name of tabber: Karu94
Date tab was made: 22/09/16

Pista 2
     E  E  E  E  E  Q.          W                   E  E  E  E  E  Q.      
A||--5--------8--5---------|--<>5----------------|--5--------8--5---------|
E||-----1--3--------5------|---------------------|-----1--3--------5------|
C||--3---------------------|---------------------|--2---------------------|
G||------------------------|---------------------|------------------------|


  W                   E  E  E  E  E  E  Q       W                 
-------------------|--5--------8--5----------|-------------------|
-------------------|-----1--3--------5-------|-------------------|
-------------------|--2-----0----------------|-------------------|
-------------------|--------------3-----2----|--0----------------|


  E  E  E  E  E  E  Q       H        Q    Q       Q    Q    Q      Q     
--5--------8--5----------|----------------3----|--5---------------------|
-----1--3--------5-------|-----------3---------|-------3---------<>1----|
--5-----3-----2-----0----|--2------------------|------------------------|
-------------------------|---------------------|------------------------|


          E  E  E   E  E  E  Q       Q    Q    Q    Q     
-------|--5--------10--5----------|----------------------|
-------|-----1--3---------5-------|----------------------|
-------|--2-----0-----------------|----------------------|
-------|---------------3-----2----|--0---------0----2----|


  E  E  E  E  E  E  E  E     E  Q.     E  Q.        E  H        E  E  E   
--5--------8--5-----------|--5-------------------|--8--------------0--0--|
-----1--3--------5--------|-----1------3---------|-----5-----------------|
--------------2--0-----0--|---------------2------|-----------------------|
--3-----------------3-----|--5-------------------|-----------------------|


  E  E  E  S  S Q    E  E     E  E  E  E  Q    E  E      E  S S E  H        E   
--5--5----------0----5--7--|-------------------5--7--|--10----9----5--------L--|
-----3--5--5s-7------------|-----5--7----------------|------3------------------|
--2------------------------|--1--------4-------------|---0------0--5--------L--|
---------------------------|-------------------------|-------------------------|


    H.           E  E     E  E  E  S  S Q    E  E     E  E  E  E  Q    E  E   
-----------------0--0--|--5--5----------0----5--7--|-------------------5--7--|
--<>0------------------|-----3--5--5s-7------------|-----5--7----------------|
-----------------------|--2------------------------|--1--------4-------------|
-----------------------|---------------------------|-------------------------|


                                                          ^                    
   E  S S E  E  E  S E  S E     S   H        Q    E  S    Q    Q    Q    Q     
--10----9----5--7----0-------|----<>2--------L----L----|--5----3--------------|
------3-------------------7--|-------------------------|--3---------6----5----|
---0------0--5---------------|-------------------------|--3-------------------|
-----------------------------|-------------------------|----------------------|


            ^            ^                  
  Q    Q    Q    Q       W                  
------------3----L----|--0----------------||
--3----L----3----L----|--2----------------||
------------4----L----|--2----------------||
----------------------|-------------------||




Duration Legend
---------------
W - whole
H - half
Q - quarter
E - 8th
S - 16th
T - 32nd
X - 64th
. - note dotted
|-n-|  - n-tuplets


Tablature Legend
----------------
L - tied note
x - dead note
g - grace note
(n) - ghost note
> - accentuded note
NH - natural harmonic
AH - artificial harmonic
TH - tapped harmonic
SH - semi harmonic
PH - pitch harmonic
h - hammer on
p - pull off
b - bend
br - bendRelease
pb - preBend
pbr - preBendRelease
brb - bendReleaseBend
\n/ - tremolo bar dip
\n - tremolo bar dive
-/n - tremolo bar Release up
/n\ - tremolo bar inverted dip
/n - tremolo bar return
-\n - tremolo bar Release down
S - shift slide
s - legato slide
/ -  slide into from below or out of upwards
\ -  slide into from above or out of downwards
~ - vibrato
W - wide vibrato
tr - trill
TP - tremolo picking
T - tapping
S - slap
P - pop
< - fade in
^ - brush up
v - brush down
Login or Register to remove this ad.