Ads

Luffy's Fierce Attack (One Piece) Guitar Tab

Submitted: May 19, 2011 by Ranulf (Last updated: May 20, 2011)

5
Average: 5 (4 votes)
Download | Listen
Game: One Piece
Composer(s): Shiro Hamaguchi
Style: Transcription

AutoScroll: Slow | Medium | Fast
Luffy's Fierce Attack
One Piece
Anime
Tabbed by Ranulf
Composed by Kohei Tanaka and Shiro Hamaguchi
5/17/11


e||----------------------------------------------------------------------------|
B||-----------------------------------10-8-10-----------------------10-8-10----|
G||*--------7-------7----7--9--10-------------7--------7--9--10--7----------7--|
D||*---7-10----7-10----------------7-------------10----------------------------|
A||----------------------------------------------------------------------------|
E||----------------------------------------------------------------------------|

|-------------------------------------------------------------------------------|
|----------------8----8-----------8--10--8----------------------10-8-10---------|
|------7--9--------10---9-----10-----------10-9----7--9--10-------------7-------|
|--10--------10-----------10---------------------------------7-------------10---|
|-------------------------------------------------------------------------------|
|-------------------------------------------------------------------------------|

|------------------------------------------------------------------------|
|---------------10-8-10--------------------8-----------------------------|
|--7--9--10--7----------7--------7--9--------10-9----9--7---7------7-7---|
|----------------------------10--------10---------10------------10-------|
|------------------------------------------------------------------------|
|------------------------------------------------------------------------|


|-----------------------------8----------------------------------------------------|
|----------------8------8-10-----11--10--8--10---------------8---------------------|
|--7-9-10---9-10-----10-------------------------10------9-10---9--10---7---9-------| Guitar 1
|----------------------------------------------------------------------------10-10-|
|----------------------------------------------------------------------------------|
|----------------------------------------------------------------------------------|
|                                                                                  |
|----------------------------------------------------------------------------------|
|----------------------------10---8------------------------------------------------|
|-------7------7-9---7-9-10----------10--9--10---7------7-9-10-7--10---7---9-7-----| Guitar 2
|--9-10-----10-----------------------------------------------------------------10--|
|----------------------------------------------------------------------------------|
|----------------------------------------------------------------------------------|


|-----------------------------8-------------------------12-13-15-12-13-------12----------|
|----------------8------8-10-----11--10--8--10--------------------------15-------15-15---|
|--7-9-10---9-10-----10-------------------------10---------------------------------------| Guitar 1
|----------------------------------------------------------------------------------------|
|----------------------------------------------------------------------------------------|
|----------------------------------------------------------------------------------------|
|                                                                                        |
|----------------------------------------------------------------------------------------|
|----------------------------10---8------------------------------------------------------|
|-------7------7-9---7-9-10----------10--9--10---7-------7-9-10-7--10---7--9--7------7---| Guitar 2
|--9-10-----10-------------------------------------------------------------------10------|
|----------------------------------------------------------------------------------------|
|----------------------------------------------------------------------------------------|


|-----------10----10---13--10----10---13--15--12---10------------------------|
|-----10-13--------------------------------------------13----------10-13-10--|
|--12------------------------------------------------------10--12------------|
|----------------------------------------------------------------------------|
|----------------------------------------------------------------------------|
|----------------------------------------------------------------------------|

|--------10----10---13--10----10---13--12------------------------10---||
|--10-13-----------------------------------13-------10----10--13------||
|-----------------------------------------------12-------------------*||
|--------------------------------------------------------------------*||
|---------------------------------------------------------------------||
|---------------------------------------------------------------------||
Repeat as much as you want
Login or Register to remove this ad.

2 comments on Luffy's Fierce Attack

Beautifully done.

5

Perhaps my favorite music from One Piece.

Same here, man, and thanks

Same here, man, and thanks for the comment.